Please login or register. October 17, 2017, 10:21:11 AM

Author Topic: tabs  (Read 42037 times)

0 Members and 1 Guest are viewing this topic.

russ2681

  • Lost In The Shadows
  • *
  • Posts: 20
  • Gender: Male
Re: tabs
« Reply #60 on: May 01, 2007, 02:56:21 PM »
Better Intro, not sure if this is right but on the videos i've seen Robin does look to be playing it around the 20th fret.  ;)

e|-18-18-18-18-18-18-18-|18-18-18-18-18-18-15-|15-15-15-15-|15-15--------------|
b|-20-22-20-22-20-22-20-|22----22-20-22-20-18-|20-18-20-18-|17-18-15-17-18-20-|

asbnty

  • Realtime Visionary
  • ***
  • Posts: 649
  • Gender: Male
Re: tabs
« Reply #61 on: August 17, 2007, 04:29:39 AM »
can someone tab the part of patience right after the solo, those chords Slash is playing right after the pause, i look on guitar tab sites, but they seem inaccurate, can one of you tell what you play when you do it and tell me it's accuracy to the recorded version?
Chinese democracy starts...... at some point!!!

Matty22

  • Won't Be Told Anymore
  • ***
  • Posts: 468
Re: tabs
« Reply #62 on: August 17, 2007, 04:42:09 AM »
You mean the "just a little patience" part?


If so its D and G
Faxl is God.

misterbrownstone

  • NewGNR Crew!
  • Very Old At Heart
  • *****
  • Posts: 15659
  • Gender: Male
  • Axl is my #1 fan.
    • rock and roll superfest
Re: tabs
« Reply #63 on: August 17, 2007, 06:28:09 PM »
wrong.

D G/F# G
t('.'t)

Robman

  • But A Little Wouldn't Do It
  • ****
  • Posts: 1414
  • Gender: Male
  • Hammer To Fall
    • Robin Finck Fans
Re: tabs
« Reply #64 on: September 02, 2007, 05:19:35 PM »
wrong again.

D D/F# G

F6 in the "I need you... woah I need you" part then G, D, G,D

Julien

  • Used To Do A Little
  • ****
  • Posts: 1176
  • Gender: Male
  • Got sarcasm?
Re: tabs
« Reply #65 on: October 30, 2007, 06:39:48 PM »
You might as well do G, C, G, C... and end with D. Works too.

gnrfreek

  • Gets More Pussy Than Mick Wall
  • *****
  • Posts: 6081
  • Gender: Male
  • monkeyboy
Re: tabs
« Reply #66 on: November 22, 2007, 01:23:03 PM »
anybody remember the song slash did with elan called street child?
i would be very happy if somebody could upload it in gp format. i've been looking everywhere, and i only found the chords, and i want to learn the solo parts from it.
so if anybody can help me out, please do
Guns n' Roses 2006.05.31
Al Di Meola 2007.06.23
Heaven and Hell 2007.07.4
Riders On The Storm 2007.07.07
Robert Plant 2007.07.10
Rolling Stones 2007.07.20

wangmaster

  • Won't Be Told Anymore
  • ***
  • Posts: 459
  • Gender: Male
Re: tabs
« Reply #67 on: April 01, 2008, 10:16:22 PM »
can someone please post a tab of Buckethead's KOHD solo at RIR 3?

I'd really appreciate it.

Matty22

  • Won't Be Told Anymore
  • ***
  • Posts: 468
Re: tabs
« Reply #68 on: April 05, 2008, 06:38:40 AM »

eb-------------------------------------------------------------------|
bb-----------------------------17b---17-15-14--14-15-17--------|
gb-12h-14-14h-16-12---12---------------------------------14----|
db-------------------------------------------------------------------|
ab-------------------------------------------------------------------|
eb-------------------------------------------------------------------|


Thats the first bar or so. I'm doing this without a guitar and by memory. Sorry I couldn't do much more.
Faxl is God.

livinginatinderbox

  • King Dick
  • ***
  • Posts: 316
  • Gender: Male
  • ‎"The Measure of life, is the measure of love."
Re: tabs
« Reply #69 on: June 17, 2008, 11:53:13 PM »
i need tabs to a song called "bring it back home" i could really use the help if anyone minds.. :?:
murph is the man!!!

chacalula

  • Banned
  • So The Little Got More And More
  • ****
  • Posts: 1680
  • Gender: Male
  • "Eso te pasa por comer zapallo sin protección"Yo-
Re: tabs
« Reply #70 on: November 04, 2008, 07:07:01 PM »
this is the beggining of the buckethead solo of nightrain in albany


eb--------------------------------15-13-12|
bb-15b-15-13-12-13-12----12-13----------|
gb----------------------14----------------|

you repeat that
1.Robin finck,buckethead,Dj Ashba
2.Ron thal
3.Richard fortus
200.Slash

Tearr

  • Fit Ta Burn
  • ***
  • Posts: 598
  • 23. november - biggest happening since 2. WW
Re: tabs
« Reply #71 on: November 19, 2008, 09:55:31 PM »
anyone got the "this i love" solo?
^,

mitophin22

  • Very Old At Heart
  • ******
  • Posts: 15336
  • Gender: Male
  • Say that again?
Re: tabs
« Reply #72 on: November 25, 2008, 09:14:36 PM »
anybody remember the song slash did with elan called street child?
i would be very happy if somebody could upload it in gp format. i've been looking everywhere, and i only found the chords, and i want to learn the solo parts from it.
so if anybody can help me out, please do

This One?
Guitar Solos:

Slash uses a wah during the first half of the solo mainly as a filter. He does rock it
and forth, but only a couple times. He does it very slowly, and not all the way. The wah
kept in the heel down position mostly though, just listen to the song.

e|---------------------------------------------------------------------------|
B|---------------------------------------------------------------------------|
G|--/9--—7b9 b9—b9r7p5---------------------------------5--7b9--5--7~---------|
D|-5--------------------7~~---b8(1/2)-5--7-----5---5h7---------------5h7p5\4-|
A|------------------------------------------7--------------------------------|
E|---------------------------------------------------------------------------|


e|-------------------8------------/10b12r10p8--------------------------------|
B|-----------8--------8------------------------10----------------------------|
G|-----5—7b9====(9)-------7b9rb5--------------------/14~~~-------------------|
D|-5h7-----------------------------------------------------------------------|
A|---------------------------------------------------------------------------|
E|---------------------------------------------------------------------------|

e|---------------------------------------------------------------------------|
B|---------------------------------------------------------------------------|
G|-12--14—14b16—b16—b16-b16r(slowly)14--12--14------12~~\--------------------|
D|----------------------------------------------14---------------------------|
A|---------------------------------------------------------------------------|
E|---------------------------------------------------------------------------|

e|-------------------------------------15------15======15--------------------|
B|------13—15b17r15p13h15~~---13---b17-----b17----b17-----r15p13-------------|
G|--/14----------------------------------------------------------14----------|
D|---------------------------------------------------------------------------|
A|---------------------------------------------------------------------------|
E|---------------------------------------------------------------------------|

e|------------------------------------------------17-------------------------|
B|-20b22~~~--20b22-b22-b22---------------------------------------------------|
G|------------------------prebend20r19b21~~---b21-----prebend21r19-----------|
D|---------------------------------------------------------------------------|
A|---------------------------------------------------------------------------|
E|---------------------------------------------------------------------------|

e|---------------------------------------------------------------------------|
B|---------------------------------------------------------------------------|
G|-17-19-19b20r19p17--19—17b1/2-------17b1/2---------------------------------|
D|-------------------------------19------------------------------------------|
A|---------------------------------------------------------------------------|
E|---------------------------------------------------------------------------|

e|---------------------------------------------------------------------------|
B|-12h13p12----12-13-15-12----------12--15--13-12-13-12------12--------------|
G|----------14-------------13----13-----------------------15-----------------|
D|----------------------------14---------------------------------------------|
A|---------------------------------------------------------------------------|
E|---------------------------------------------------------------------------|


e|-------15------------------17--19-20p19-20p19p17—19b20~~-pb20r19p17h19~~---|
B|-15b17====17r15p13-----/17-------------------------------------------------|
G|-------------- ----14\-----------------------------------------------------|
D|---------------------------------------------------------------------------|
A|---------------------------------------------------------------------------|
E|---------------------------------------------------------------------------|

e|--19b20-19—17h19p17---17---------------------------------------------------|
B|--------------------19-----20b22—20b22—20-17-18---------20-----------------|
G|--------------------------------------------------19b21=====(21)-----------|
D|---------------------------------------------------------------------------|
A|---------------------------------------------------------------------------|
E|---------------------------------------------------------------------------|

e|---------------------------------------------------------------------------|
B|---------------------------------------------------------------------------|
G|--b21-21-21-21-21-(slowly release bend)---17---19b21r19p17-----------------|
D|------------------------------------------------------------19~~-----------|
A|---------------------------------------------------------------------------|
E|---------------------------------------------------------------------------|
I almost gave a F#*k