Please login or register. March 28, 2017, 09:14:53 AM

Author Topic: tabs  (Read 40929 times)

0 Members and 1 Guest are viewing this topic.

IvanV

  • Failure To Communicate
  • *
  • Posts: 3
tabs
« Reply #45 on: May 22, 2006, 06:10:46 AM »
Quote from: "an old rocker"
can somewhoen post the tabs from ain't it fun


www.powertabs.net

Forcemaster

  • Used To Do A Little
  • ****
  • Posts: 1087
tabs
« Reply #46 on: May 28, 2006, 10:36:46 PM »
does anyone wanna tab the fortus + finck beautiful thing? i'd be VERY appreciatative

misterbrownstone

  • NewGNR Crew!
  • Very Old At Heart
  • *****
  • Posts: 15659
  • Gender: Male
  • Axl is my #1 fan.
    • rock and roll superfest
tabs
« Reply #47 on: May 28, 2006, 10:49:48 PM »
Quote from: "Forcemaster"
does anyone wanna tab the fortus + finck beautiful thing? i'd be VERY appreciatative


i'd like it too.
t('.'t)

OctoberRain

  • All Geared Up
  • *****
  • Posts: 7192
  • Gender: Male
    • http://www.myspace.com/patience2006
tabs
« Reply #48 on: May 31, 2006, 12:39:34 AM »
Quote from: "Forcemaster"
does anyone wanna tab the fortus + finck beautiful thing? i'd be VERY appreciatative


thats why I got in here....I'd like it too.
zigazig ha....L!VE FREE! is my n00b

toad89

  • Rubbermade Baby
  • *
  • Posts: 14
rir patience solo
« Reply #49 on: June 03, 2006, 02:07:18 AM »
Can someone post that patience solo from rock in rio, that would be great. Thanks.

_God_

  • King Dick
  • ***
  • Posts: 319
tabs
« Reply #50 on: June 27, 2006, 01:22:03 PM »
Quote from: "wyldechild"
I dont know the name of the song but ...

can someone tab that "military song" that buckethead played during his live solo....

I hope someone knows what I mean

and thanx allready


it's also a part of the Die Hard theme if it's that what you mean, just a moment I'll try it

_God_

  • King Dick
  • ***
  • Posts: 319
tabs
« Reply #51 on: June 27, 2006, 01:45:10 PM »
Quote from: "_God_"


it's also a part of the Die Hard theme if it's that what you mean, just a moment I'll try it


It's a simple tab but you can start with it

------12-12-12-12---14--15--14--15--12--10----12--10---
---12-----------------------------------------------------------
-----------------------------------------------------------------
-----------------------------------------------------------------
-----------------------------------------------------------------
-----------------------------------------------------------------

------12-12-12-12---14--15--14--15--17--19----15--19---
---12-----------------------------------------------------------
-----------------------------------------------------------------
-----------------------------------------------------------------
-----------------------------------------------------------------
-----------------------------------------------------------------

-14-15-19-19-19-19--15-17-17-17-17--15-15-15-15-
------------------------------------------------------------
------------------------------------------------------------
------------------------------------------------------------
------------------------------------------------------------
------------------------------------------------------------

-12-14-14-14-14--14-15-19--17--15--14--12-12-12-12---12
--------------------------------------------------------------12---
--------------------------------------------------------------------
--------------------------------------------------------------------
--------------------------------------------------------------------
--------------------------------------------------------------------

Dirty Little Thing

  • In Another Woman's Bed
  • **
  • Posts: 71
tabs
« Reply #52 on: June 28, 2006, 05:29:22 AM »
Hey Bolt, if it wouldn't be too much trouble do you think you could tab out the Blues from Boston 2002?

wyldechild

  • Old At Heart
  • ******
  • Posts: 12271
  • Gender: Male
  • Overlord
    • My Youtube Account
tabs
« Reply #53 on: July 23, 2006, 04:05:57 PM »
Quote from: "_God_"
Quote from: "_God_"


it's also a part of the Die Hard theme if it's that what you mean, just a moment I'll try it


It's a simple tab but you can start with it

------12-12-12-12---14--15--14--15--12--10----12--10---
---12-----------------------------------------------------------
-----------------------------------------------------------------
-----------------------------------------------------------------
-----------------------------------------------------------------
-----------------------------------------------------------------

------12-12-12-12---14--15--14--15--17--19----15--19---
---12-----------------------------------------------------------
-----------------------------------------------------------------
-----------------------------------------------------------------
-----------------------------------------------------------------
-----------------------------------------------------------------

-14-15-19-19-19-19--15-17-17-17-17--15-15-15-15-
------------------------------------------------------------
------------------------------------------------------------
------------------------------------------------------------
------------------------------------------------------------
------------------------------------------------------------

-12-14-14-14-14--14-15-19--17--15--14--12-12-12-12---12
--------------------------------------------------------------12---
--------------------------------------------------------------------
--------------------------------------------------------------------
--------------------------------------------------------------------
--------------------------------------------------------------------

thanks  :)
YOU CAN HAVE BOOZE WITHOUT FUN

everso908

  • Rubbermade Baby
  • *
  • Posts: 10
tabs
« Reply #54 on: August 02, 2006, 12:09:12 PM »
does anyone have a tab for bumble foots dont cry from wembley?
many tahnks

ryba

  • Failure To Communicate
  • *
  • Posts: 1
tabs
« Reply #55 on: August 08, 2006, 05:08:42 PM »
Hey, guys, I recognize and appreciate your efforts, but listen.. text tabs suck.. ;)

Maybe you wouldn't mind tabbing and uploading something to the PTA site ( www.powertabs.net ) so that your efforts could be appreciated by more people in the WORLD (than the few of us who post on this forum).

I'm currently working on tabbin' old Aerosmith stuff, but there is a lot to tab/improve amongst the GN'fR tabs.

http://www.powertabs.net/artist.php?param=pattern,47,100;page,0

Cheers!

gnrfreek

  • Gets More Pussy Than Mick Wall
  • *****
  • Posts: 6081
  • Gender: Male
  • monkeyboy
Re: tabs
« Reply #56 on: February 04, 2007, 03:15:13 PM »


If I uploaded my "FULL" version of Guitar Pro 4.0.8 I'd get banned from here :P
just tell him how to use torrent
Guns n' Roses 2006.05.31
Al Di Meola 2007.06.23
Heaven and Hell 2007.07.4
Riders On The Storm 2007.07.07
Robert Plant 2007.07.10
Rolling Stones 2007.07.20

Julien

  • Used To Do A Little
  • ****
  • Posts: 1176
  • Gender: Male
  • Got sarcasm?
Re: tabs
« Reply #57 on: February 04, 2007, 09:27:56 PM »
Has Catcher been tabbed yet? I'd love to know the chords.

gnrfreek

  • Gets More Pussy Than Mick Wall
  • *****
  • Posts: 6081
  • Gender: Male
  • monkeyboy
Re: tabs
« Reply #58 on: February 04, 2007, 09:49:39 PM »


It's a simple tab but you can start with it

------12-12-12-12---14--15--14--15--12--10----12--10---
---12-----------------------------------------------------------
-----------------------------------------------------------------
-----------------------------------------------------------------
-----------------------------------------------------------------
-----------------------------------------------------------------

------12-12-12-12---14--15--14--15--17--19----15--19---
---12-----------------------------------------------------------
-----------------------------------------------------------------
-----------------------------------------------------------------
-----------------------------------------------------------------
-----------------------------------------------------------------

-14-15-19-19-19-19--15-17-17-17-17--15-15-15-15-
------------------------------------------------------------
------------------------------------------------------------
------------------------------------------------------------
------------------------------------------------------------
------------------------------------------------------------

-12-14-14-14-14--14-15-19--17--15--14--12-12-12-12---12
--------------------------------------------------------------12---
--------------------------------------------------------------------
--------------------------------------------------------------------
--------------------------------------------------------------------
--------------------------------------------------------------------
wht song is this?
Guns n' Roses 2006.05.31
Al Di Meola 2007.06.23
Heaven and Hell 2007.07.4
Riders On The Storm 2007.07.07
Robert Plant 2007.07.10
Rolling Stones 2007.07.20

spank

  • Troubled Heart
  • **
  • Posts: 27
Re: tabs
« Reply #59 on: April 01, 2007, 03:24:47 AM »
can anyone post the chords for catcher in the rye, please?