Please login or register. October 23, 2017, 04:10:49 PM

Author Topic: tabs  (Read 42054 times)

0 Members and 1 Guest are viewing this topic.

Kilamite

  • So The Little Got More And More
  • ****
  • Posts: 1689
  • Gender: Male
    • http://www.edinbughmetalscene.co.uk
tabs
« Reply #30 on: April 09, 2004, 10:27:58 AM »
Quote from: "mongis"
for gods sake, give the man a free full version of guitar pro!!!


If I uploaded my "FULL" version of Guitar Pro 4.0.8 I'd get banned from here :P

Used Illusions

  • A Stranger We Met
  • **
  • Posts: 48
    • http://hometown.aol.com/usedillusions1/index.html
tabs
« Reply #31 on: April 09, 2004, 04:58:31 PM »
guitar pro is better than power tab???

Kilamite

  • So The Little Got More And More
  • ****
  • Posts: 1689
  • Gender: Male
    • http://www.edinbughmetalscene.co.uk
tabs
« Reply #32 on: April 09, 2004, 05:30:14 PM »
Quote from: "Slash_Buckethead_Finck"
guitar pro is better than power tab???


Well...depends. PowerTab you have everything on one page and it's printed professionally

Guitar Pro you have drum kits etc keyboards but it's on different "sections" and when you print it it looks a loada pish...

Power Tab is better for learning songs (they are labelled Chorus, Verse etc where as Guitar Pro is a mess) and Guitar Pro is good for jamming along since it has drums :P

Used Illusions

  • A Stranger We Met
  • **
  • Posts: 48
    • http://hometown.aol.com/usedillusions1/index.html
tabs
« Reply #33 on: April 09, 2004, 08:43:57 PM »
Aah I see. the reason my tabs look like crap is because i tried to cut and paste from word. So it's not gonna look the best on the site.

bolt

  • NewGNR Crew!
  • Bedouin
  • *****
  • Posts: 92
tabs
« Reply #34 on: April 18, 2004, 08:26:02 PM »
if you post the tabs in "small" font size they don't fuck up as much. Still, Kilamite's converted me to guitar pro - at least for the next 30 days until my trial runs out...

TheNewGNR

  • Failure To Communicate
  • *
  • Posts: 1
New GNR Live show tabs
« Reply #35 on: May 12, 2004, 07:15:58 AM »
Is anyone thinking about tabbing some of the New GNR live shows?  In particular like Nighttrain from pittsburgh...  Buckethead was amazing on that one.  Not to mention the other one's as well, mostly the old songs like WTTJ, SCOM, YCBM, NR.

blackwidow

  • Bedouin
  • **
  • Posts: 88
    • http://shatannka.blog.onet.pl
tabs
« Reply #36 on: January 02, 2006, 12:36:29 AM »
Thanks guys :D

toad89

  • Rubbermade Baby
  • *
  • Posts: 14
tabs
« Reply #37 on: January 04, 2006, 04:07:54 AM »
can anyone tab the live version of use to love her. I wanna learn the part around 2.50

bolt

  • NewGNR Crew!
  • Bedouin
  • *****
  • Posts: 92
tabs
« Reply #38 on: March 05, 2006, 06:47:55 PM »
Quote from: "toad89"
can anyone tab the live version of use to love her. I wanna learn the part around 2.50


A bit late...


-13(10)------------12-----I---13(10)----12(10)---------------
-----po------12------------I------po---------po-----12(10)----
-----------------------------I-----------------------------po-----
-----------------------------I-------------------------------------
-----------------------------I-----repeat 8 times---------------
-----------------------------I-------------------------------------

Slash fucks up the 7th repeat of the above by doing a pull-off from the 14th rather than 13th fret.



-10----bu-------10-------po-----------------------------------h-po--------
-------13-------------13(10)--------bu----10----bu-----10(13)(10)------
-------------------------------------12------------12-----------------------
------------------------------------------------------------------------------
------------------------------------------------------------------------------
------------------------------------------------------------------------------



------------------------------------------------------------
--pb--bd--------po------------------bu-------------------
-(12)(10)---12(10)-------po-------9---------------------
------------------------12(10)-----------------------------
-------------------------------------------------------------
-------------------------------------------------------------




---------------------10---7---------------------------------
---bu----7---10-----------------pb--bd--------------------
-9(11)--------------------------(11)(9)----7----9---------
--------------------------------------------------------------
--------------------------------------------------------------
--------------------------------------------------------------
the bend is held on the 9th fret (i.e. let ring) and then released on the prebend later in the phrase



--------------------------------------------------------------------
-7----10------10----10---------------------10---------10-10----
-7----9(11)---------(11)(9)--7-------h-----9(11)(9)--7--9-----
---------bu-----------pb-bd---------7(9)------bu-bd------------
--------------------------------------------------------------------
--------------------------------------------------------------------




--bu-----------------h---------------------------------------
-10-----10~~---10(12)--11--10--9----bu-bd----po------
-----------------------------------------12----(12)(10)-----
--------------------------------------------------------------
--------------------------------------------------------------
--------------------------------------------------------------



-----------------------------------------------------------------
-----------------------------------------------bu--13-13------
------12-------12-------10-------12-10----12----------------
-12-------12-------12-----------------------------------------
----------------------------------------------------------------
----------------------------------------------------------------





------------------------------------------------------------
--bu--13--13----bu---13--13----pb-bd---po------------
-12--------------12--------------(13)(12)(10)-----------
------------------------------------------------------------
------------------------------------------------------------
------------------------------------------------------------



--------------------------------------------------------------------
---------------------h----------------------------------------------
------12--------10(11)--------------------------------------------
-12--------12-------------12---11-------------bu-bd--po--------
---------------------------------------12---10(12)(10)(8)-------8~~
---------------------------------------------------------------10-----



------------------------------------------------------------------------
-------------------------------------------------------10--------10---
-------------5--------------7------7------------10---------12--------
-3---5/(7)-----7--7/(9)-------9------9/(11)-------------------------
------sl-------------sl------------------sl-----------------------------------
------------------------------------------------------------------------





--------------------------------------------10-----
---10--------10------h-----10-------h------------
--------12--------10(11)--------10(11)----------
----------------------------------------------------
----------------------------------------------------
----------------------------------------------------



-------13-------15--------13--13-------bu--bd---------------
-/15-------15--------15-------------17(19)(17)---15--------
-----------------------------------------------------------------
-----------------------------------------------------------------
-----------------------------------------------------------------
-----------------------------------------------------------------




-----bu--bd---------17(19)------17(19)---------------
-17(19)(17)--15-------bu-----------vibrato-----------
----------------------------------------------------------
----------------------------------------------------------
----------------------------------------------------------
----------------------------------------------------------


some of the solo's a bit hard to make out, so I may have tabbed the odd bit wrong. Don't forget to tune down 1/2 step.

White-Rider

  • But A Little Wouldn't Do It
  • ****
  • Posts: 1360
tabs
« Reply #39 on: March 07, 2006, 11:43:23 PM »
Quote from: "bolt"
Buckethead "Who me?" - tuned somewhere between E flat and E

---3-----------3---0-----------------
-------0-------------------------------
-----------5--------------0------0---
------------------------------0-------
---3-------3--------3----------------
--------------------------------------


---3--------3--5--0------------------
---------------------------------------
--------0----------------0------4-----
-----------------------------0---------
---3---------------3----------------0--
----------------------------------------

repeat above 2 bars , then....



---3-----------3---0-----------------
-------0-------------------------------
-----------5--------------0------0---
------------------------------0-------
---3-------3--------3----------------
--------------------------------------


---3--------3--5--0-------------------------0
-------------------------------------------0--
--------0----------------0------4---5---------
-----------------------------0----------------
---3---------------3----------------0-------
---------------------------------------------



---------------------0-------------
--1-----0-------0----------4.5-(mute)---------
-------------0---------------------
----------------------------------
----------------------------0-(ring)-----
---------3-------------------------






---3-----------3---0-----------------
-------0-------------------------------
-----------5--------------0------0---
------------------------------0-------
---3-------3--------3----------------
--------------------------------------



---3--------3--5--0-------------------------0
-------------------------------------------0--
--------0----------------0------4---5---------
-----------------------------0----------------
---3---------------3----------------0-------
---------------------------------------------



---------------------0-------------
--1-----0-------0---------(0)---------
-------------0------------(2)---------
--------------------------(2)--------
--------------------------(0)-------
---------3-------------------------
0:41






---3-----------3---0-----------------
-------0-------------------------------
-----------5--------------0------0---
------------------------------0-------
---3-------3--------3----------------
--------------------------------------



---3--------3--5--0-------------------------0
-------------------------------------------0--
--------0----------------0------4---5---------
-----------------------------0----------------
---3---------------3----------------0-------
---------------------------------------------



----------------------------------------0---3----
--1-----0---------------------------0----------0
-------------0---------------4---5-----------------0
------------------------------------------------
----------------------------------0-------------
---------3--------------------------------------





-------h--------------------------
--0--0(1)--------------------------
---------------------------------
--------------------------------
-------------12-------------------
--3----------NH----------------------
0:57


Then pretty much similar patterns repeated.


I'd play it different from this one. Try to play along the tune; does this one really fit in?

I'll post a different version soon ...

bolt

  • NewGNR Crew!
  • Bedouin
  • *****
  • Posts: 92
tabs
« Reply #40 on: March 08, 2006, 05:58:12 PM »
It's been a long time since I tabbed it. Haven't listened to it for a while, but recall that the tuning was in an odd key. Post your version - I'd be interested in seeing what you think.

wyldechild

  • Old At Heart
  • ******
  • Posts: 12271
  • Gender: Male
  • Overlord
    • My Youtube Account
tabs
« Reply #41 on: March 08, 2006, 06:40:46 PM »
I dont know the name of the song but ...

can someone tab that "military song" that buckethead played during his live solo....

I hope someone knows what I mean

and thanx allready
YOU CAN HAVE BOOZE WITHOUT FUN

an old rocker

  • Used To Do A Little
  • ****
  • Posts: 1009
  • Gender: Male
  • smashing on those strings...
tabs
« Reply #42 on: April 14, 2006, 02:08:08 PM »
can somewhoen post the tabs from ain't it fun
A.O.R

cuddergnr

  • It Was A Long Time With Me
  • ****
  • Posts: 2989
  • A Real Jackass
tabs
« Reply #43 on: May 20, 2006, 02:18:39 PM »
I.r.s Tabs???
It's Easy MMMMM'Kay

misterbrownstone

  • NewGNR Crew!
  • Very Old At Heart
  • *****
  • Posts: 15659
  • Gender: Male
  • Axl is my #1 fan.
    • rock and roll superfest
tabs
« Reply #44 on: May 20, 2006, 05:43:30 PM »
Quote from: "cuddergnr"
I.r.s Tabs???


http://www.chinesedemocracy.com/viewtopic.php?t=10475
t('.'t)