Please login or register. April 28, 2017, 01:29:58 AM

Author Topic: tabs  (Read 40980 times)

0 Members and 1 Guest are viewing this topic.

Skully

  • Rubbermade Baby
  • *
  • Posts: 13
tabs
« Reply #15 on: February 19, 2004, 03:27:15 AM »
bolt, thanks a lot for all of the tabs. I don't want to be negative but are you still going to tab the double talkin jive outro?
^That's amazing^

bolt

  • NewGNR Crew!
  • Bedouin
  • *****
  • Posts: 92
tabs
« Reply #16 on: February 20, 2004, 10:46:07 PM »
Sorry man - I got sidetracked a bit - I know I promised to do this ages ago. I was going to tab the whole of the solo for you from the Spanish bit all the way into Civil War, but haven't looked at it for quite some time (I got frustrated - there were a lot of awkward bits to this solo).

I've posted what I've worked out so far, which is all of the Spanish bit that you wanted (I finished it off tonight as I'm Billy no-mates this Friday), but also most of the subsequent blues bit (except for the last ~30 secs and a few of the hard bits I was going to revisit when I'd done the rest of the tab) and most of the Voodoo Chile bit, including all of the "signature" Hendrix intro to Civil War.

Please ignore my annotations that don't make sense - they're just cribs for whilst I'm tabbing.



Spanish bit 35:10
--------1----------------1-------------------1------------------1---------
------1---1--1--------1----1----1-------1-----1----1--------1----/8-6-5-
----2-------2-------2---------2-------2-----------2-------2---------------
--3---------------3------------------3-------------------3---------/5-3-2-
----------------------------------------------------------------------------
----------------------------------------------------------------------------



-----------0----------------------0--------------------0-------------------0
--------0-----0----0----------0-----0----0---------0-----0----0-------0----0---0
-----1-----------1---------1-----------1---------1----------1--------1--------1
--2---------------------2----------------------2-------------------2-
-------------------------------------------------------------------
----------------------------------------------------------------

(repeat)


--0--1--3-(1)--0--1--1~~-----------------------
-----------po----------------0-1-1-1~~--3-1-1-
--------------------------------------------------
--------------------------------------------------
--------------------------------------------------
--------------------------------------------------


-------------------------------------------
--0-1-0-----------------------------------
-----------2-1~~--1--1/(5)-4--4--4-----
-------------------------------------------
-------------------------------------------
-------------------------------------------



--------------------------------------
--------------------------------------
--------------------------------------
-2-2-2---2-3-3-3-3-----------------
--------------------------------------
--------------------------------------



-----------------------------8-7-5---------h-po-------
-------------------5-6-8-------------8-6-5-(6)-(5)------5-
----------4-5-7---------------------------------------7---
--3-5-7------------------------------------------------
--------------------------------------------------------
--------------------------------------------------------



---------------------------
---------------------------
-7-7/(9)-10-9-10-9~~----
---------------------------
---------------------------
---------------------------



------------------------------------------------
------------------------------------------------
----------9(10)(12)(10)(9)---------------------
-9-10----------------------------12(10)(9)-------
------------------------------------------------
------------------------------------------------



-----------------------------------------------------
-----------------------------------------------------
-9(10)(12)(10)(9)--10(9)--------------9-----------------
-------------------------------12(10)---------12(10)(9)--12-
-----------------------------------------------------
-----------------------------------------------------



-----------------------------------------------------
-----------------------------------------------------
-9(10)(12)(10)(9)--10(9)------------------9-----------------
----------------------------------12(10)-------------------
-----------------------------------------------------
-----------------------------------------------------


------------------------------------------------------
------------------------------------------------------
-9(10)(12)(10)(9)--10(9)--------------9--(12)-----------
---------------------------------12(10)--------------------
------------------------------------------------------
------------------------------------------------------
last note of the above line sounds like a miss-hit note


-----------------------------------------------------
-----------------------------------------------------
-9(10)(12)(10)(9)--10(9)--------------9-----------------
-------------------------------12(10)-------------------
-----------------------------------------------------
-----------------------------------------------------


-----------------------------------------------------
-----------------------------------------------------
-9(10)(12)(10)(9)--10(9)----------------9-----------------
--------------------------------12(10)-------------------
-----------------------------------------------------
-----------------------------------------------------


------------------------------------------------------------------------------
----------------------------------------------10(12)(10)(8)-----------10-12(13)-
----------------9(10)-----------9(10)(12)----------------------12----------------
--9(10)(12)------------12(10)----------------------------------------------------
------------------------------------------------------------------------------
------------------------------------------------------------------------------


-10-12-13-----------10-12-13-12-10-------------
---------------10--------------------------13-12-10--
-----------------------------------------------
-----------------------------------------------
-----------------------------------------------
-----------------------------------------------


-13-12-10-----------------13-12-10---------------13-12-10------------
---------------13-12-10----------------13-12-10---------------13-12-10
-------------------------------------------------------------------------
-------------------------------------------------------------------------
--------------------------------------------------------------------------
--------------------------------------------------------------------------



-12-10-8----------8----------------------------h-po-h-po-----------
--------------12---------12-10-9--10-----9(10)(9)(10)(9)----------
------------------------------------------------------------------
------------------------------------------------------------------
------------------------------------------------------------------
------------------------------------------------------------------


-----------------------------------------------------------------------------------
-10--9----------------------------------------------------------------------------
----------10(12)(10)(9)---10(9)(10)(9)------------9-------------------------
-----------------------------------------------12----------12--10-9--------9------
-------------------------------------------------------------------------12-------12----
----------------------------------------------------------------------------------


-------------------------------------------------------------------------------------
------------------------------------------------------------------------------------
-------------------------------------------------------------------------------------
--------------------------------------------------------------------------------------
----12(14)(12)(11)--12---11(12)(11)--------12-------------------------------------8~~~----
---------------------------------------------13---------13-12--10--8--10--8(7)(8)-----------



------------------------------------
------------------------------------
--------5--4--7\(5)----------------
-2--3-------------mute------------
-----------------------------------
-----------------------------------


-----------------------------------------------------
------------10-9/12-----13-12---10-9-------------
-7-9-10-9-------------------------------10-10-9--
-----------------------------------------------------
-----------------------------------------------------
-----------------------------------------------------
trem pick except for last 3 notes

36:25 Blues bit
----------------------------------------------------
--3--5--3\(1)--3-1-0---bu-bd-po----po-----------
------------------------2(3)(2)(0)--2-(0)----------
----------------------------------------------------
----------------------------------------------------
----------------------------------------------------


------------------------------------
------------------------------------
-----po----------------------------
--2-(0)-----0----------------------
---------2-----2---bu-------------
------------------3(4)-------------


-----------------------------------
-----------------------------------
-----------------------------------
------2----------2----------------
------------po--------------------
--0--------3(0)-------------------
repeated pattern 7 bars


------------------------------------
-----------------------3--2--------
-----------------------2--2--------
------2----------2----0--2--------
------------po------------0-------
--0--------3(0)-------------------
repeated pattern, 8th bar


----------------0----0--------------------
----------------0----0---pb-bd-po-------
---------------------------3(2)---(0)-----
------2-----------------------------------
------------------------------------------
-0----------0----------------------------


----------------0----0------------------
----------------0----0---pb-bd-po-----
---------------------------3(2)---(0)---
------2---------------------------------
----------------------------------------
-0----------0--------------------------




----------------------------------------------------------
----------------------------------------------------------
--------------po-----------------------------------------
-----2------2(0)--------2----------h-po-------h--po----
-----------------------------2-1-0(1)(0)-----0(1)(0)----
-0-------0---------------------------------3------------


-----------------po------------po-----------------------
---------------2-(0)--------2-(0)------------------------
-------po-----2-(0)--------2-(0)--0---------------------
----2-(0)--------------2---------------2------sl---------
-----------2---------------------------------5/(7)-------
3--------------------------------------------------------


-----------------------------0---------0---
--------------------------0-----0--3------
-----pb-bd-po----bu----------------------
--5--9(7)(5)----7(9)----------------------
-------------------------------------------
-------------------------------------------


------sl-------------------0-------0---------0-----bu--0--------
-0-3/(5)----(0)-------5----5--3----3--5------5-8(9)-----------
-----------------------------------------------------------------
-----------------------------------------------------------------
-----------------------------------------------------------------
------------------------------------------------------------------



----bu---bu------------------------------
--8(9)--8(9)---po-----------------------
--------------9(7)-----------------------
--------------------9--------------------
-----------------------------------------
-----------------------------------------



----bu---bu-----------------bu-----10---pb-bd-po-----------------------
--8(9)--8(9)---po-------10(12)--------12(10)(8)-----10--8----po-------
--------------9(7)------------------------------------9------------9(7)-------
--------------------9------------------------------------------------------9---
---------------------------------------------------------------------------
---------------------------------------------------------------------------

-----bu--10-pb-bd-po--------po------------------------------
-10(12)-----12(10)(8)-----10(8)--slight bu--------------------
---------------------------9--------------------------------------
----------------------------------------------------------------
----------------------------------------------------------------
----------------------------------------------------------------



-------bu-----7--10--pb-bd-po-----bu-----------po----------
-0-10(12)------------12(10)(8)--10(12)--8---10(8)----------
------------------------------------------------------------9-----
---------------------------------------------------------------
---------------------------------------------------------------
---------------------------------------------------------------


?transposition?????
------bu----------------------------------------------------
--12(14)----14--12----------------------------------------
----------------------14--12-----po-----------------------
-------------------------------14-(12)---------------------
------------------------------------------14-13-12-10----
------------------------------------------------------------


-------------------------------------------------------------------------
-------------------------------------------------------------------------
-------------------------------------------------------------------------
-------5~~--7--5--po---------------x---5~~--x---7-5----po----------
--7~~-------------7(5)-------7~~---x---------x---------7(5)----------
--0-----------------------0----------x---------x---------------0-------


----------------------------------------bu-bd-po---------------------------
------------------------------14---14(15)(14)(12)--14--14--12-slight bu--
------------------------------14---14(15)(14)(12)--14--14--12-slight bu--
------x----5~~-x---7-------------------------------------------------------
-7~~-x---------x-----------------------------------------------------------
------x---------x-----------------------------------------------------------


------po--------------------------------------------------12-----------bu---12-
--14(12)------14--12----------------------h---bu----12------12--15(17)------
--14(12)------14--12----14(12)-------12(14)(15)------------------------------
-----------14---------------------14--------------------------------------------
----------------------------------------------------------------------------------
----------------------------------------------------------------------------------


---------------------------------------------
-15-14-12--------bu--bd--po--------------
---------------14(15)(14)(12)--------------
--------------------------------14----------
---------------------------------------------
---------------------------------------------


--------------12------------12-------------
------h---12------12---15------15--12----
--12(13)-----------------------------------
--------------------------------------------
--------------------------------------------
--------------------------------------------


--12-----------12-------------------------
------12---15-----15--12-----------------
--------------------------------------------
--------------------------------------------
--------------------------------------------
--------------------------------------------
repeat X7





--12---------h----12------------------h--po--po------------------
-----12--14(15)--------14--15--14-(15)(14)(12)--14-12---------
--------------------------------------------------------------------
--------------------------------------------------------------------
--------------------------------------------------------------------
--------------------------------------------------------------------

not finished 37:27


37:31
-----------------------------
-----------------------------
-----------------------------
-----------------------------
-----------------------------
-----------------------------


37:36
-------------------------------------------
-------------------------------------------
-----po-----------------------------------
-14(12)------------12--12---------------
---------14(12)--------------------------
------------------------------------------


ok?????
-----------------------------------------------------------------------------
-----------------------------------------------------------------------------
-----------------------------------------------------------------------------
-14(12)-----------12-------------------------------------------------------
----------14(12)--------14(12)\(10)----12(10)-----------------------------
---------------------------------------------------12(10)--15-15--10------




Voodoo Chile intro
--------------------------------------------------------------------------
--------------------------------------------------------------------------
--------------------------------------------------------------------------
---------------------bu----------------------------sl--sl---sl------------5
------h---10-12-12(13)-12--10-9-10-9-10-9-10\(9)\(5)-/7----7-7------
-10-(12)------------------------------------------------------------------



-----------------------------
-----------------------------
-----------------------------
----po-----------------------
-7-(5)---po----bu-----------
-------7-(5)--3(4)----------

-pb--pb-pb-pb-bd-po-------------------bu-bd---po---bu-------bu--------------------bu---10--
-12-12-12-12(10)-(8)------8--10---10(12)(10)-(8)-10(12)--10(12)--10-8---10--10(12)-------
--------------------------9----------rapid bend---------------------------------------------------
---------------------------------------------------------------------------------------------------
---------------------------------------------------------------------------------------------------
---------------------------------------------------------------------------------------------------
prebend 10th fret to 12


-pb-bd--po-------10-9-7-9----7(mute)-----------
-12(10)-(8)-----x-----------8---------------------
-------------9-------------------------------------
---------------------------------------------------
---------------------------------------------------
---------------------------------------------------


-------h-po--------------------------------------------
-7-8-7(8)(7)--------7---------------------------------
----------------9---------7--------7----------9-------
-------------------------------9---------9------------
-------------------------------------------------------
------------------------------------------------------


--------------------------I------------I--
----h--po----------------I------------I--
-7-(9)-(7)-----h---7-----I----h---7---I--
-----------9-8(9)--------I--8(9)------I--
--------------------------I..repeat......I--
--------------------------I------------I--



-----------------------------
-----------------------------
------h----12-------------------
--10(11)---------------------------
-----------------------------
-----------------------------
this one is interdespersed with the repeated patter in the line above

.................no t done yet 38:10.......
-----------------------------
-----------------------------
-----------------------------
-----------------------------
-----------------------------
-----------------------------


Voodoo Chile Proper 38:42



-----------------------------
-----------------------------
-9~~------7---------------
------9~~-----5--5---7-5----po-
-----------------------------7(5)-
-----------------------------------7



-----------------------------
------------------po-----------------
-9-7---------9-9(7)----------------------
---pm----9-------------------------
-----------------------bass guitar mutes in E flat---------
-----------------------(x-x-x-x-x)---------

N.B. the palm muted 7 is almost completely muted, as are the subsequent palm mutes

-----------------------------
-----------------------------
-9-7--------7-----------------------
---pm---9------5--5---7-5---po---------
------------------------------7(5)----
-------------------------------------7


----------------------------
-----------------sl-----------------
-9-7---------9-9\----------------------
---pm---9-------------------------
--------------------bass guitar mutes in E flat---------
--------------------(x-x-x-x-x)---------




-----------------------------
-----------------------------
-9-7--------7-----------------------
---pm---9------5--5---7-5---po---------
------------------------------7(5)----
-------------------------------------7


--------------------------------------------------------------
--------------------po---------------------------------------
-9-7---------9-----9(7)-------------------------------------
---pm---9-------9-------------------------------------------
-----------------pm-------bass guitar mutes in E flat---------
----------------------------(x-x-x-x-x)----------------------



----------------------------------------------------------
----------------------------------------------------------
-9-7--------7--------------------------------------------
---pm---9------5--5---7-5---po-------------------------
------------------------------7(5)------7--5---bu-bd-----------
-------------------------------------7--------5(7)(5)----3--0--

bolt

  • NewGNR Crew!
  • Bedouin
  • *****
  • Posts: 92
tabs
« Reply #17 on: February 20, 2004, 11:06:12 PM »
I haven't put in all the hammer-ons and pull-offs, but the brackets are pretty much all HOs and POs unless stated as otherwise.

Kilamite

  • So The Little Got More And More
  • ****
  • Posts: 1689
  • Gender: Male
    • http://www.edinbughmetalscene.co.uk
tabs
« Reply #18 on: February 20, 2004, 11:08:25 PM »
Bolt - tried using the Power Tab Software?

CivilWar

  • Fit Ta Burn
  • ***
  • Posts: 509
    • http://www.BackToTheRoses.com
tabs
« Reply #19 on: February 20, 2004, 11:16:28 PM »
yeah, or guitar pro, dude havin those tabs in guitar pro file format would be killa

slash_GNR

  • Failure To Communicate
  • *
  • Posts: 2
tabs
« Reply #20 on: February 20, 2004, 11:25:39 PM »
cheers for that bolt good stuff i shall try the full thing out tomoz

bolt

  • NewGNR Crew!
  • Bedouin
  • *****
  • Posts: 92
tabs
« Reply #21 on: February 20, 2004, 11:32:33 PM »
Quote from: "Kilamite"
Bolt - tried using the Power Tab Software?


Yeah, I had a quick look at the website, but didn't know which bit to download - is it just a trial program/ sample? i.e. do you have to shell out for the full version?

Kilamite

  • So The Little Got More And More
  • ****
  • Posts: 1689
  • Gender: Male
    • http://www.edinbughmetalscene.co.uk
tabs
« Reply #22 on: February 20, 2004, 11:34:44 PM »
Its freeware.

Power Tab Download

;)

xavier

  • Lost In The Shadows
  • *
  • Posts: 21
tabs
« Reply #23 on: March 10, 2004, 11:54:07 PM »
What exactly is Powertab?

CoMa

  • Used To Do A Little
  • ****
  • Posts: 910
  • www.seregon.co.uk
    • http://www.seregon.co.uk
tabs
« Reply #24 on: April 08, 2004, 10:04:28 PM »
easy way to tab asewll as hear what u tab

Kilamite

  • So The Little Got More And More
  • ****
  • Posts: 1689
  • Gender: Male
    • http://www.edinbughmetalscene.co.uk
tabs
« Reply #25 on: April 08, 2004, 10:05:59 PM »

Used Illusions

  • A Stranger We Met
  • **
  • Posts: 48
    • http://hometown.aol.com/usedillusions1/index.html
tabs
« Reply #26 on: April 09, 2004, 12:23:16 AM »
Buckethead, "Holloween" :rockon:

||--9-----9-----9---10----||-|
||o---7-7---7-7---7----7-o||-|
||------------------------||-|
||------------------------||-|
||o----------------------o||-|
||------------------------||-|
Repeat 2x


||--8-----8-----8---9----||-||--7-----7-----7---8-----||
||o---6-6---6-6---6---6-o||-||o---5-5---5-5---5---5--o||
||-----------------------||-||------------------------||
||-----------------------||-||------------------------||
||o---------------------o||-||o----------------------o||
||-----------------------||-||------------------------||
repeat 2x                        Repeat 2x

                                                              14x
||--6-----6-----6---7----||-||--14-------14-------14----15-----||
||o---4-4---4-4---4---4-o||-||o----12-12----12-12----12----12-o||
||-----------------------||-||---------------------------------||
||-----------------------||-||---------------------------------||
||o---------------------o||-||o-------------------------------o||
||-----------------------||-||---------------------------------||
Repeat 2x                       Repeat 12x

Tablature Legend
----------------
 h   - hammer-on
 p   - pull-off
 b   - bend
 pb  - pre-bend
 r   - bend release (if no number after the r, then release immediately)
 /\  - slide into or out of (from/to "nowhere")
 s   - legato slide
 S   - shift slide
 - natural harmonic
[n]  - artificial harmonic
n(n) - tapped harmonic
 ~   - vibrato
 tr  - trill
 T   - tap
 TP  - trem. picking
 PM  - palm muting
\n/  - tremolo bar dip; n = amount to dip
 \n  - tremolo bar down
 n/  - tremolo bar up
/n\  - tremolo bar inverted dip
 =   - hold bend; also acts as connecting device for hammers/pulls
 <>  - volume swell (louder/softer)
 x   - on rhythm slash represents muted slash
 o   - on rhythm slash represents single note slash

Misc Legend
-----------
 |  - bar
||  - double bar
||o - repeat start
o|| - repeat end
*|  - double bar (ending)
 :  - bar (freetime)
 $  - Segno
 &  - Coda

Used Illusions

  • A Stranger We Met
  • **
  • Posts: 48
    • http://hometown.aol.com/usedillusions1/index.html
tabs
« Reply #27 on: April 09, 2004, 12:31:33 AM »
Wild Horses, tokyo...I love this tab. Sounds really good :rockon:
G         Am              G
------------------------------10-10-10--10-10-10\8-8-7~
------------------------------10-10-10--10-10-10\8-8-8~
-----------------------------------------------------7~
-------------------------------------------------------
-------------------------------------------------------
-------------------------------------------------------

   Am                  G
--------------10-10-10--10-10-10-10-10-10\8-8-7~-------
--------------10-10-10--10-10-10-10-10-10\8-8-8~-------
----------------------------------------------7~-------
-------------------------------------------------------
-------------------------------------------------------
-------------------------------------------------------

        Bm              G
---------------------------10--------------------------
-------10fb--8---10fb---------10fb--8---8h10-8~~-------
---------------9----------------------9----------------
-------------------------------------------------------
-------------------------------------------------------
-------------------------------------------------------

       Bm         G
-------------10-----------10---------------------------
----10b--8------10b----------10b--8---10/12~~----------
-----------9------------------------9------------------
-------------------------------------------------------
-------------------------------------------------------
-------------------------------------------------------

           Am            C
---10------10-------------------8p7-8p7-8p7------------
-------10b-----10b---10~~-------------------8----------
----------------------------------------------7h9~~----
-------------------------------------------------------
-------------------------------------------------------
-------------------------------------------------------

               G              D
-------------------------------------------------------
----------8--10fb--8---10/12-12~~---13p12-13p12-13--12-
------7h9------------9---------------------------------
--7h9--------------------------------------------------
-------------------------------------------------------
-------------------------------------------------------

           Bm            G
------------------------------15-----------------------
--12\10-10-10~~-----17fb-17fb----15b-15~~--13h15p13----
---------------------------------------------------14b-
-------------------------------------------------------
-------------------------------------------------------
-------------------------------------------------------

           Bm
-------------------------------------------------------
--------------------15b---------------------15---------
-12h14-12----12~~---14b-14b--14b-14b--14b-14b--14b-14b-
----------14-------------------------------------------
-------------------------------------------------------
-------------------------------------------------------

    G               Am
-----------------------------------15-----15-----------
--------------------------------------15b----15rb15b---
--12-----12~-12----12-14-12-12~~-----------------------
------14--------14-------------------------------------
-------------------------------------------------------
-------------------------------------------------------

         C
-------------------------------------------------------
-15rb--13p12-13p12---------------------12-15-----12----
-------------------12----------12-14b--------14b-------
----------------------12h14~~--------------------------
-------------------------------------------------------
-------------------------------------------------------

        G
-------------------------------------------------------
-12------------------15--15-----15--15-15-------------
----14p12------14/16---16--16-16--16----16\14-14-12-14~
----------14-------------------------------------------
-------------------------------------------------------
-------------------------------------------------------

  D                Am
-------------------------------------------------------
-------------------------------15--15------------------
-14~~-------------12h14--14/16---16--16-16-14-14~~-----
------------12h14--------------------------------------
------13h14--------------------------------------------
-------------------------------------------------------

             C
-------------------------------------------------------
------17-17-17-15--15\13-13\12-12\10-10\8--8h10-10-----
--14---------------------------------------------------
-------------------------------------------------------
-------------------------------------------------------
-------------------------------------------------------

            G            F
-----10----------10b-10-8------------8-----------------
10/12--12\10-10-8---------10--8h10-10--10-8-8-10-8-10~~
-------------------------------------------9-----------
-------------------------------------------------------
-------------------------------------------------------
-------------------------------------------------------
               Couldn't drag

      C                    Am
-----10------------------------------------------------
-8h10---10b--8h10-8-8~~-3h5-3h5-3h5-3h5-3h5-3h5-3h5-3h5
-------------------------------------------------------
-------------------------------------------------------
-------------------------------------------------------
-------------------------------------------------------
me away

         C
-----3-5-5/7~------7-8--10-8-7-10-8-7-10-8-7--12-10-8--
-3-5---------------------------------------------------
-------------------------------------------------------
-------------------------------------------------------
-------------------------------------------------------
-------------------------------------------------------
   Wild, wild horses
      G         F        C
-------------------------------------------------------
-12-10--8-12-10-8-8-7-8~-8-7-7h9p7-5-7-5-3-5-3---------
-----------------------------------------------5-4-5~~-
-------------------------------------------------------
-------------------------------------------------------
-------------------------------------------------------
         Couldn't drag me away

Used Illusions

  • A Stranger We Met
  • **
  • Posts: 48
    • http://hometown.aol.com/usedillusions1/index.html
tabs
« Reply #28 on: April 09, 2004, 12:32:48 AM »
I have both tabs on power tab. The site makes it look wacky. Sorry.
Rob

mongis

  • Gets More Pussy Than Mick Wall
  • *****
  • Posts: 6882
  • Gender: Male
  • Sex, Smurf and Rock N' Roll
    • http://www.somethingwild.tk
tabs
« Reply #29 on: April 09, 2004, 08:01:34 AM »
for gods sake, give the man a free full version of guitar pro!!!
28.06.06 - Oslo, Norway
05.07.06 - Helsinki, Finland
06.07.06 - Helsinki, Finland
08.07.06 - Oslo, Norway
27.07.06 - Nottingham, England
29.07.06 - London, England
30.07.06 - London, England