Please login or register. June 28, 2017, 01:20:36 AM

Author Topic: tabs  (Read 41263 times)

0 Members and 1 Guest are viewing this topic.

bolt

  • NewGNR Crew!
  • Bedouin
  • *****
  • Posts: 92
tabs
« on: February 17, 2004, 06:53:58 PM »
Wild Horses

47:25
Gilby
3----------------15-----------------------------------------------------
-3----------bu--------15---pb-------------------------------------
--0-----14(15)------------(15)14--12-----12---------------------------
---0------------------------------------14-----14-13-12---------------------
----2------------------------------------------------------14-12-12\10--------------
-----3---------------------------------------------------------------------12----



--------------------------------------------15-----------------15-
-------------------------------------------------15----pb------15--
---------------------h---12-(14)(12)--14(15)--------(15)14--12
---------sl-----12-(14)---------------------------
-10--12/(14)------------------------------------
---------------------------------------


Slash

---3------------------------------------
-----3--bu--------------------------------
-------2(3)-2-0-----h---0-----0-------h--0--------
------------------0-(2)-----0------0--(2)-------
---------------------------------------
---------------------------------------


---------------------------------------
---------------------------------------
----0----0----0------0-----0-----0---0---0-----0
--5----5----5------9---10-----9---7----5----4----
---------------------------------------
---------------------------------------



---------------------------------------
---------------------------------------
-----0---0---0------0-------0------0----0-----------------------------0--
--5----4---2---0(2)----0(2)---0(2)---0----------0---------0---0------0--
----------------------------------------------0(2)------0(2)----0(2)---2--
------------------------------------------------------------------------3--



Gilby
---------------------------------------------------------3
-----3----------------------pb--po---------------------3
--/4---4\(2)-0-2-0-----0--(3)2-(0)---------------------0-
---------------------2--------------2-0-----------------0-
-----------------------------------------2---------------2-
---------------------------------------------3-----------3

Slash
----3--------5---------6---------7---------8------------10------
--------------------------------------------------------------
-------4-4/5----5-5/6----6-6/7-----7-7/9-----9-9-9/11-----11----
---------------------------------------
---------------------------------------
---------------------------------------



-----10-----10--------8--------bu------------------------bu--
-----------------------------10(12)-10--8-10----8--10-(12)--
--11----11------11\9--------------------------9-----
---------------------------------------
---------------------------------------
---------------------------------------


--7--10-------bu----------------10---10--bu---------
----------10-(12)--10--8-------------10(12)---------------
----------------------------9-------------
---------------------------------------
---------------------------------------
---------------------------------------

Gilby             po
--15-15-15-(12)------------po----------------------
-----------------15-15-15-(12)-----------bu--bd--po----
---------------------------------14-12-14(15)(14)(12)----
----------------------------------------------------------14
---------------------------------------
---------------------------------------



---------------------------------------
-------h---po--------------------
--12(14)(12)----------h----po----------h--po--
---------------14--12(14)(12)------12(14)(12)----------------
--------------------------------14---------------14-14-13-13-12-12--------
-------------------------------------------------------------------------15------

---------------------------------------
---------------------------------------
---------------------------------------
---------------------------------------
-14-14-13-13-12-12----------ooooooooooo-----------------------
---------------------------------------



Slash
---------------------------------------
-----------------------------------bu-bd------bu---12--15------bu-bd--
------------------------14----12(14)(12)--14(15)-----------14(15)(14)---
-------h----12-14-14----14----------------------
---13(14)--------------------------------
----------------------------------



---------------------------------------
-------------------------------po-----------------------------po
--12---------po---12-14-14-(12)----12-----po-12-14-14-(12)----12-----po
------14-14(12)------------------14-----14(12)-----------------14-----14(12)-
---------------------------------------
---------------------------------------


---------------------------------------
-----------------12--15--------------------po
----12--14-(15)--------14(15)(14)----14-(12)----12-------h--12------
-14---------------------------------------------14------12(14)
---------------------------------------
---------------------------------------


-----------------------------------------------------
-----------------------------------------------------
-----------------------------------------------------
-----h---po--sl---------------
-12(14)(12)\(10)--12-(10)----------------------
-------------------------------12-(10)-----------

-----------------------------------------------------
---12--12--12----------------------------------------------
---12--12--12-x-x----------------------------------------------
---12--12--12---------12---12-12---x-x-12----------------------------
----------------------------------------------14-14-x-x-14-10-10---------
-----------------------------------------------------

Gilby
------------sl------------h----------3-------------------
----13---12\-----6---5-(6)-5-------3-----------------------------
----12---12\-----5---5--------------0-------------------------
---------------------------------5---0-----------------
-----------------------------------------------------
-----------------------------------------------------

Slash
------15--------15---------------15--------15----------
--13-----13-12------12-----13-----13-12------12-----
-----------------------------------------------------
-----------------------------------------------------
-----------------------------------------------------
-----------------------------------------------------


------15-----------15---------15-----------15----------------
---13----13----13----13--13---13-----12-----12------------
---------------------------------------------------------------
--------------pm..............-------------------------------------
----------------------------------------------------------------
----------------------------------------------------------------



------15----------sl---------bu-bd-po-----------sl---------sl------
--13-----13---12\(10)--10(12)(10)(8)----10---8\(7)--8--7\(5)----
-----------------------------------------9--------------------------
--------------------------------------------------------------------
--------------------------------------------------------------------
--------------------------------------------------------------------



-----------------------------------------------------
----7--5\(3)--5--3----------5---l-----bu-bd--------------------
---------------------5--4-------5-4-2(4)(2)-0-----2(0)------0-----------------
---------------------pm-------------------------2-------0(2)------------
-----------------------------------------------------
-----------------------------------------------------



-----------------------------------------------------
-----------------------------------------------------
--------0--------0--------0----0-------------------------
-2/(5)-----5\(2)-----0(2)----0-----------0-----------0-------0---h---0---
------------------------------------0(2)-------2\(5)----5\(2)---2(3)---
-----------------------------------------------------

--------------------3---------------------------------
------------------0-----------------------------------
-----------------------------------------------------
-----------------------------------------------------
--3--3--2-----------------------------------------------
------------3-----------------------------------------

Gilby wild horses
--3------0--------3-----0------3-------2-----3----2----------
--3------1--------3-----1------3-------3-----3----3----------
--0------2--------0-----2------0-------4-----0----4----------
--0------2--------0-----2------0-------4-----0----4----------
--2------0--------2-----0------2-------2-----2----2----------
--3------0--------3-----0------3-------------3-------------
G maj   A min    G maj  A min  G maj    B min  G maj  B min

--3---0---3----0----3---2----------------------------------
--3---1---3----1----3---3----------------------------------
--0---2---0----0----0---4----------------------------------
--0---2---0----2----0---4----------------------------------
--3---0---3----3----3---2----------------------------------
--3---0---3----0----3-------------------------------------
G maj A min G maj C maj G maj B min

bolt

  • NewGNR Crew!
  • Bedouin
  • *****
  • Posts: 92
tabs
« Reply #1 on: February 17, 2004, 06:55:34 PM »
SOSSEGO -RIR III

Single-note intro. Some crazy-shit radio rap comes on in my copy,
with another guitar bit  that sounds in tune, but I think it's the radio.
I've put the timing in, but the recording I've got starts after 1 min 21 secs -
after Axl introduces Robin. My recording also skips near the end - there's
a bit when the guitar playing suddenly jumps to Robin hollering "Brazil".


starts at 1:21
-------------------------------------------
-------------------------------------------
-------------------------------------------
---------------------------------------x-x-9--11--------
-------------------------------------------
---7----9------7-7-7-7---7--9--------



-------------------------------------------
-------------------------------------------
-------------------------------------------
-x-11---x-11-----x-9-9-9-9----9-11----11-x-11-----------------
-------------------------------------------
-------------------------------------------



-------------------------------------------
-------------------------------------------
-------------------------------------------
---x-x--9-11---x--11---x--11---x--9-9---9---11--x--11------------
-------------------------------------------
-------------------------------------------



---------------------------9-----------9---
-------po-----------------9-----------9-----
--11--(9)----9-------x----9----x-----9--------------
---9--------11-------x---11----x----11--------------
-------------------------------------------
-------------------------------------------


Then these 2 notes vamped with mutes
-------------------------------------------
----12----14-----------------------------------
----x------x--------------------------------
----9-----11----------------------------------
-------------------------------------------
-------------------------------------------

(I've not tabbed the exact notes and rhythm, but this is easy
enough to play using the 2 chords above + mutes)


1:44
-------------------------------------------
--16/17--17--16-17--14----------------------------------
-------------------------------------------
--13/14--14--13-14--11--11---9----11----------
-------------------------------------------
-----------------------------9----7----9---------


1:50 - single note pattern a
-------------------------------------------
-------------------------------------------
-------------------------------------------
------------------h--sl-------9---------------------
---------h--7--(9)-/(11)----------9-7~~------------------------
----7--(9)-------------------------------------


1:53.5 - single note pattern b
-------------------------------h------------h
------------------------9--9-(12)----11~~(12)-12\------------
--------------9--11---------------------------------
--/9--11----------------------------------------
-------------------------------------------
-------------------------------------------



2:18
-------------------------------------------
-------------------------------------------
--------------------------------(9)---------------
9-/--(11)--11---------h---9--x----11--------------------
9-/--(11)--11-x-x-9-(11)----------------------------------
7-/--(9)---9------------------------------------
The 9 in brackets is played momentarily before the subsequent 11
by sweep picking backwards

-------------------------------------------
--------------------------------------h--po---
----------------------------------9-(11)(9)--------------
9-/--(11)--11----------h---9--x-----------11--------------------
9-/--(11)--11--x-x-9-(11)----------------------------------
7-/--(9)---9------------------------------------


-------------------------------------------
-------------------------------------------
--------------------------------(9)---------------
9-/--(11)--11---------h---9--x----11--------------------
9-/--(11)--11-x-x-9-(11)----------------------------------
7-/--(9)---9------------------------------------



------------------9------po---------------------
----------bu--9------12-(9)---bu--------bu--bd-bu-bd--po-----po---
------11(12)---------------11(12)---11(12)(11)(12)(11)(9)--11(9)------
--11----------------------------------------------------------------11
-------------------------------------------
-------------------------------------------


-------------------------------------------
-----------------------------------trill--------
--------------------------------9(11)---------------
9-/--(11)--11------------9--x------------------------
9-/--(11)--11-x-x-9-(11)----------------------------------
7-/--(9)---9------------------------------------



-------------------------------9------------
-----------------------------9----------
--------------------11-(13)-----(13)11---9-------------------
9-/--(11)--11-------------------------------11------
9-/--(11)--11-x-x---------------------------------
7-/--(9)---9------------------------------------



2:33
-------------------------------------------
-------------------------------------------
-----------------------------------9------------
9-/--(11)--11------------9-----------11-----------------
9-/--(11)--11-x-x-9-(11)----11------------------------------
7-/--(9)---9------------------------------------

-------------------------------------------
-------------------------------------------
--9-----------------------------------------
-----9(11)(9)------9---sl----po-h-------bu--bd---------------
---------------11-----11\(9)(7)(9)----9(11)(9)---7---9---7----------
-------------------------------------------



-------------------------------------------
-------------------------------------------
-----------------------------AaaagghhH--------------
--x--x----9---11-------------------------------
--x--x----9---11--------------------------------
--x--x----7---9--------------------------------



-------------------------------------------
-------------------------------------------
----------------------------------Mmmmm---------
--x--x--x-----9-9---9--11--------------------------
--x--x--x-----9-9---9--11--------------------------
--x--x--x-----7-7---7--9--------------------------

-------------------------------------------
-------------------------------------------
-----------------------------------------
--x--x----9---11-------------------------------
--x--x----9---11--------------------------------
--x--x----7---9--------------------------------


-------------------------------------------
-------------------------------------------
-------------------------------------------
---9--9-9-9----9-----11-------------------------------
---9--9-9-9----9-----11-------------------------------
---7--7-7-7----7----(10)------------------------------
I've put the 10 in brackets, as I think it's a fretting error. I think it should
have been a 9.

2:46
-------------------------------------------
-------------------------------------------
----h---9(10)---[7]---------------------------------
-9(11)----------NH---x--11---------------------------
-------------------------------------------
-------------------------------------------


-------------------------------------------
-------------------------------------------
--------h------------po--------------------
--x-x-9(11)---11~~(9)---11-x-11---------------------
----------------------------------
----------------------------------


2:51
-------------------------------------------
-------------------------------------------
-------------9(10)---------------------------
--x-x-9(11)----------11-x-x-11-----------------
----------------------------------
----------------------------------

-----------------------------------------
-------------------------------------------
--------h------------po--------------------
--x-x-9(11)---11~~(9)---11-x-11---------------------
----------------------------------
----------------------------------


2:55
-------------------------------------------
-------------------------------------------
-------------9(10)---------------------------
--x-x-9(11)----------11-x-x-11-----------------
----------------------------------
----------------------------------

-----------------------------------------
-------------------------------------------
--------h------------po--------------------
--x-x-9(11)---11~~(9)---11-x-11---------------------
----------------------------------
----------------------------------

3:00
-------------------------------------------
-------------------------------------------
-------------9(10)---------------------------
--x-x-9(11)----------11-x-x-11-----------------
----------------------------------
----------------------------------



3:02
-------------------------------------------
-------------------------------------------
---------h----11(mute)-----9~~------------------------
--x-x-9(11)-----------------------------
--------------------------------
----------------------------------
I think the muted 11 may actually be 9 bent up to 11

3:04
-------------------------------------------
--------------bu--------------------------
------h---11(13)---------------h----11----------
----9(11)---------x-x-11----9(11)--12----11-x-x-11------
----------------------------------
---------------------------------------


-------------------------------------------
--------------bu--------------------------
------h---11(13)---------------h----11----------
----9(11)----------x-x-11---9(11)--12-------------
----------------------------------
------------------------------------

The above pattern repeats for a bit - my copy of the song suddenly skips to Robin shouting "Brazil"


-------------------------------------------
-------------------------------------------
----------------------------------------
--11--11---x-x-----11-11---x--x--x--x--14-x---13-----
--x----x----x-x-----x---x----x--x--x--x---x--x---x------
--9----9----x-x-----9--9----x--x--x--x--12--x--11---


-------------------------------------------
---------------------------------14-14--14-14------
----------------------------------x--x----x--x---
--11--9--/11--9--x--x----------11-11--11-11--
--11--9--/11--9--x--x------------------
--9---7--/9----7--x--x----0-0-------------


-------------------------------------------
-x--14--14--x--14--14--------------------------------
-x---x---x---x---x---x-------------------------
-x--11--11--x--11--11---------------------
----------------------------------
----------------------------------

-------------------------------------------
-------------------------------------------
-------------------------------------------
------------------h--sl-------9---------------------
---------h--7--(9)-/(11)----------9-7~~------------------------
----7--(9)-------------------------------------
(i.e. pattern a again)
then pattern b


Outro
---------------9-----po-----------------------
-------------------12(9)-----------9--------bu-bd--bu--bd-po--h--po
---11(13)----------------11(11.5)------11(13)(11)(13)(11)(9)-(11)(9)-------
---------------------------------
----------------------------------
----------------------------------


-------------------------------------------
-----------h---------------------------------------------12
------9--8(9)----------------po----9--11--9--11/(13)----
--11----------------11-9-11(9)-------------
---------------11-------------------
----------------------------------


-------------------------------bu-------bu---
----------12------14--17--19(21)--19(21)---17------------------
-11/(13)----13-----------------------------------
---------------------------------
----------------------------------
----------------------------------


-------12------h---------12------po---------------
---14-----12(14)-------------14(12)-----14-----------------
-------------------13-----------------11----13\(11)
---------------------------------
----------------------------------
----------------------------------


------------------------------------------
-----------------h---po-sl-------------------h--------------
-13\11-13\(11)(13)(11)\(9)------11-----9-(11)----h------------------------
-----------------------------11------11---------9-(11)--------------
----------------------------------------------------------
------------------------------------------


-----------------------------------------------------------
--------------------------------------------------------------
------------------------------------------------------------
------9----------------po-----po---bu----------------bu--
-11-----11\(9)--11\(9)(7)---9(7)--7(9)---7--9------7(7.5)----------
-------------------------------------------------9



-----------------------------------------------------
----------------------------------------------------------------13--x--13----
-----------------------------------------------9-----------------x--x--x--
--11--9------------h-----------9------9--11-----11\(9)--11---11-x--11--------
--x---x-----7----7(9)-9/(11)------11--------------------------------
--9---7/(9)----9------------------------------------------



-----------------------------------------------------
-----------------------------------------------------
-----------------------------------------------------
--11--11---11---9--11--x-11-x-11----etc....-------
-----------------------------------------------------
-----------------------------------------------------



As a final passing note, I'd expect that a lot of the outro is
probably improvised on the C blues scale (remember this
starts on fret 9, as Robin has his guitar tuned down 1/2 step).
Have a go at improvising using the following imposition of that scale,
keeping a continual rhythm to the notes.

------------------------------------------------------9-------
----------------------------------------h----9--12-------------
------------------------------h----9--(11)---------------------
-------------h---sl-------9--(11)-----------------------------
----h----7--(9)--/-(11)----------------------------------------
-7-(9)---------------------------------------------------

bolt

  • NewGNR Crew!
  • Bedouin
  • *****
  • Posts: 92
tabs
« Reply #2 on: February 17, 2004, 06:58:25 PM »


------8----8--/-10-\-8----7--5--3---------
--/8-------8--/-10-\-8----8--7--5---------
--------------------------------------------
--------------------------------------------
--------------------------------------------
--------------------------------------------


------8-------7--5---5---3---0------------------------
---/8-(ring)---8--7---7---5---0------------------------
--------------------------------------------
--------------------------------------------
--------------------------------------------
--------------------------------------------



--8---------8----8--/-10-\--8------7--5--3--3--2-----------
-----8----8------8--/-10-\--8------8--7--5-----3--------
--------------------------------------------
--------------------------------------------
--------------------------------------------
--------------------------------------------



---2-----------------------------------------
------3----sl---7-----------7------3-----------------
---------2/(4)---------h--------------------------
---------------------7(9)-----------------------
--------------------------------------------
--------------------------------------------



-----bu-bd---------------bu-----------bu----------------
--8(10)(8)--8~~~----10(12)(10)---10(12)~~--------------------------------
--------------------------------------------
--------------------------------------------
--------------------------------------------
--------------------------------------------



---------bu-bd--------------------------------------
----------8(10)(8)--8-8(10)---------------------------------
--------x---------------mute--------7(8)~~-------------
------x--------------------------------------
----x----------------------------------------
--------------------------------------------



------------7---10-------10-(8)-(7)---------------sl-----h--------bu-bd--po-sl
----h---8---------------------po-po------8-10-10/12-(13)---12(13)(12)(10)-\(8)-------
--7(9)---------------------------------7---------
--------------------------------------------
--------------------------------------------
--------------------------------------------



------------------sl---------bu--bd-------------------
-------------10/(12)-12(13)(12)-10------------
-------------------------------------------
--------------------------------------------
--------------------------------------------
--------------------------------------------


--------------------------------------------
----------10-----------------------------------------------------------------
--------------11(then mute)---------7-(9)(7)---7~~--7\4-------2------h---2--
----------------------------------PH-bu-bd------------------------3(4)------0
--------------------------------------------------------------------PH-
----------------------------------------------




------h---------------------------------------
---7-(8)-7----------------------------------------------------------h--po--h---po-
---7--------------------4-----------5-------7--------9---------11(12)(11)(12)(11)~~
---7-------------5--7------5--7-------7--9----9-10---10-12---
----------------------------------------------
----------------------------------------------


--------------5---------h-------------
----8----7---5----5--5(7)------------------
----7----7---7-------------7------------
----5----5---5-------------0------------
----0----0---0--------------------------
----------------------------------



----------------------2-----2---------3---3-------3--3
-----7----7----------3-----3---------3---3-------3--3-
-----7----7----------2-----2---------0---0--x-x--0--0---
-----7----7---------------(mute)-------------x-x--------
-----5----5-----------------------------------x-x
----------------2-----------------3-------------




------------2-------2-------2--2--2---0-------------
----------------5-----------3--3--3---3-----------7------7
-----2----------------------2--2--2---0-----------7--x---7
----------------------------------------------------7---x--7-
----------------------------------------------------5---x--5
------------------------2------------------3-2-0--




------sl---sl----------
-----8/(10)/---------
-----------------
---------------------
-------------------
--------------------



------14\(12)--------12--------------
----------------------------
--14-----(12)---12------------------
----------------------------
-----------------------------
-----------------------------


------10\(8)-----8-7~~----------------
----------------------------
--/11--------9------------------
----------------------------
-----------------------------
-----------------------------

-----7\(5)------5--3-------3--------
----------------------------
--7---------5-----------5------
-------------------------(sweep)---
-----------------------------
-----------------------------

----------2--3(2)-------------------
--------------------3--------------
------7----------------2------------
-/7-----------------------0-------
-----------------------------
-------------------------------2

bolt

  • NewGNR Crew!
  • Bedouin
  • *****
  • Posts: 92
tabs
« Reply #3 on: February 17, 2004, 07:02:38 PM »
FINCK SOLO RIR III
 vol swell                                                                    B           PO

--------------------------------------------------------------------
--7----------8-7-----5--2--3-------3--2--------------------------
--------------------------------------------4-----4-(4.25)(4)--(2)-
--------------------------------------------------------------------
--7-----------------5------(5)----2--------------2----------------
-------------------------------------------------------------------

                               h                  sl                   sweep
-------------------------------------------------------------------
------------------------------------------------7-----------------
-----------------2--(4)---2--------------------7-----------------
-----4------5-----------------4----------9----9-----------------
-----------------0---------------/9----9----9--------------------
----------3-------------------------------------------------------


----------------------------------------------------------------------
----------------------------------------------------------------------
-------------------11----12-11-----9---6-7---11-7-6-4-(4.25)(4)--
-------9--------12---------------------------------------------------
---------9-----------------------------------------------------------
-----------7/-12-------------------10----------7-------5-----------


                                     h                                      sweep
---------------------------------------------------------------------
-----------------------------------------------------7--------------
---2-------------2----2(4)--2---------------------7---------------
-------4------5-------------------4--------9----9-----------------
-------------------------------------/9---9------------------------
-----------3----------------------------7-------------------------


-------------------------------------------------------------------
-------------------------------------------------------------------
-------------------------------------------------------------------
-----------------11--12--11------9----6-7------7-6-4-----------
-------------------------------------------------------------------
--7--7/-(12)-12---------------10--------------7------------------


      (prebend)                        h                                   sweep
-------------------------------------------------------------------
-------------------------------------------------------7----------
---4-(6)-(4)--2---------2-2-(4)--2-------------------7----------
-----------------4---5----------------4--------9-----9----------
-----------------------------------------/9---9----9-------------
---5---------------3---------------------------------------------


------------------------------------------------------------------
------------------------------------------------------------------
----------------11--12--11------9---6-7-----11--7-6----------
--9-----------12------------------------------------------------
----9-----------------------------------------------------------
------7/--12-------------------10-----------7------------------


                                             h                                    sweep

-------------------------------------------------------------------
------------------------------------------------------7-----------
--4-(6)-(4)-2----------2--2-(4)-2----------7--------7-----------
--------------4---5----------------4-----9---9-----9------12----
---------------------------------------/9--------9--------(harm)-
-5--------------3-------------------------------------------------

Kilamite

  • So The Little Got More And More
  • ****
  • Posts: 1689
  • Gender: Male
    • http://www.edinbughmetalscene.co.uk
tabs
« Reply #4 on: February 17, 2004, 07:05:18 PM »
Man, you should tab these using Guitar Pro or Power Tab Editor!

bolt

  • NewGNR Crew!
  • Bedouin
  • *****
  • Posts: 92
tabs
« Reply #5 on: February 17, 2004, 07:05:28 PM »
Buckethead "Who me?" - tuned somewhere between E flat and E

---3-----------3---0-----------------
-------0-------------------------------
-----------5--------------0------0---
------------------------------0-------
---3-------3--------3----------------
--------------------------------------


---3--------3--5--0------------------
---------------------------------------
--------0----------------0------4-----
-----------------------------0---------
---3---------------3----------------0--
----------------------------------------

repeat above 2 bars , then....



---3-----------3---0-----------------
-------0-------------------------------
-----------5--------------0------0---
------------------------------0-------
---3-------3--------3----------------
--------------------------------------


---3--------3--5--0-------------------------0
-------------------------------------------0--
--------0----------------0------4---5---------
-----------------------------0----------------
---3---------------3----------------0-------
---------------------------------------------



---------------------0-------------
--1-----0-------0----------4.5-(mute)---------
-------------0---------------------
----------------------------------
----------------------------0-(ring)-----
---------3-------------------------






---3-----------3---0-----------------
-------0-------------------------------
-----------5--------------0------0---
------------------------------0-------
---3-------3--------3----------------
--------------------------------------



---3--------3--5--0-------------------------0
-------------------------------------------0--
--------0----------------0------4---5---------
-----------------------------0----------------
---3---------------3----------------0-------
---------------------------------------------



---------------------0-------------
--1-----0-------0---------(0)---------
-------------0------------(2)---------
--------------------------(2)--------
--------------------------(0)-------
---------3-------------------------
0:41






---3-----------3---0-----------------
-------0-------------------------------
-----------5--------------0------0---
------------------------------0-------
---3-------3--------3----------------
--------------------------------------



---3--------3--5--0-------------------------0
-------------------------------------------0--
--------0----------------0------4---5---------
-----------------------------0----------------
---3---------------3----------------0-------
---------------------------------------------



----------------------------------------0---3----
--1-----0---------------------------0----------0
-------------0---------------4---5-----------------0
------------------------------------------------
----------------------------------0-------------
---------3--------------------------------------





-------h--------------------------
--0--0(1)--------------------------
---------------------------------
--------------------------------
-------------12-------------------
--3----------NH----------------------
0:57


Then pretty much similar patterns repeated.

bolt

  • NewGNR Crew!
  • Bedouin
  • *****
  • Posts: 92
tabs
« Reply #6 on: February 17, 2004, 07:07:17 PM »
Buckethead Starwars


-------------------------7-----------------------7
--------7---5--4------------7-------5---4-----------7----
----4----------------6-----------------------6-----
------------------------------------------------
------------------------------------------------
------------------------------------------------



------------------------------------------------
----5--4---5---2-----------bu-------------------19------
------------------------13(14)---16--16~~~-------------------
--------------------------------------------------16------------
------------------------------------------------
-----------------------------------------------



----------------------19--------------------------19
---17---16---------------19------17---16------------19------
--------------18-----------------------------18-----
--------------------------16---------------------------16---
------------------------------------------------
-----------------------------------------------



------------------------------------------------
-----17--16---17---14-----------------------------------
------------------------------------------------
------------------------------------------------
------------------------------------------------
-----------------------------------------------



------------------------------------------------
------------------------------------------------
------------------------------------------------
-------------4---6--7--9--7--------------4---6--7--4-----
----4--4------------------------4---4---------------
-----------------------------------------------



------------------------------------------------
------------------------------------------------
----------h-----6-----4----------------------------
--7---4--(7)-----------------------------------------
------------------------------------------------
-----------------------------------------------




------------------------------------------------
------------------------------------7~~~~------------
------------------------6------------------------
----------4---6--7--4-------4------------------------
---4--4-------------------------------------------
-----------------------------------------------




------------------------------------------------
------------------------------------------------
-----------------6------------------------------
---4---7-6--4-------7-6------------4-------------------
----------------------------4----4-------pick slide---------
-----------------------------------------12\------



------------------------------------------------
------------------------------------------------
------------------------------------------------
------------------------------------------------
---2--2---2--2----------5---2-----------5----2----------
--------------------5----------------5-----------



------------------------------------------------
------------------------------------------------
---------------------------------------------------------------t---
--4--4--4---5----4-----------------------------------------(14)---t--
----------------------5--(harm-17)-------------5----2-----------(17)(2)-----
-----------------------------------------5-------------------

bolt

  • NewGNR Crew!
  • Bedouin
  • *****
  • Posts: 92
tabs
« Reply #7 on: February 17, 2004, 07:09:22 PM »

Bucketheadland


Intro

-------------------------------------------------------------
-------------------------------------------------------------
-------------------------------------------------------------
--------------5--x--5--x----4--x-4-x-----------------------
---5-x--5-x-----------------------------5---x---5---x------
-------------------------------------------------------------

Mutes are the open strings muted with the left hand at the fret of the previous note


--------------------------------------
--------------------------------------
--------------------------------------
------------------5-------------------
---------4--5----5-------------------
--5--------------3-------------------



Main Riff

-------------------------------------------------------------
-------------------------------------------------------------
-------------------------------------------------------------
--------------------------------------------7--------5------
----------4-----5----4~~-------4-5------------------------
-----2--2----2-----2-------2-2-------x--x-----x-x---------


-----------------------------------
----------------------------------
------------------------------------
-----------------------------------
---------4----5---4---5-5--------------
----2-2----2---2-----3--3------------------



-----------------------------------------------------
-------po-po----------------------------------------
-----7-(6)-(4)------po-po---------------------------
-----------------7-(6)-(4)-------po-po--------------
------------------------------7-(5)-(4)------po-po--
------------------------------------------7-(5)-(4)--



-----------------------------------
----------------------------------
------------------------------------
---4-------4------5--5-------4----------
---4-------4------5--5-------4------wel-come--
-0-2---0---2-----3--3----0--2-------3---2---

last 2 notes are a second guitar with a voicebox


tremolo picking...plus one octave down
-----------------------------------
--12--14--15----20--19--17-------(repeat)------------
------------------------------------
-----------------------------------
----------------------------------
------------------------------------



---(rhythm guitar)---------------------------------
-----------------------------------
-4--------4----2----------2-------------
-4--------4----2----------2----5--------5-
-2-x-x-x--2---0---x-x-x--0----5--------5---------
--------------------------------3-x-x-x--3


-----------------------------------
--12--14--15--20--19\------------------------
------------------------------------
-----------------------------------
----------------------------------
------------------------------------

     
---------bu--------------------------
----19-(20)-----------------------------
----19-(20)---------po----------------
----------------21-(19)--21----------------
----------------------------------
------------------------------------


           
----------po-------------------------
------19-(20)-----------------------------
-x-x--19-(20)--------po-----------po------
-x-x--------------21-(19)--21~~-(19)---------------
------------------------------------------19----17
------------------------------------


then similar patterns with following endings....
                                       
--------------------------bu----------bu-------po------bu-------
---------------------22-------22---------------------------------
---------------------21-(22)-----21-(22)-21-(19)--21-(22)--19-
-------------------------------------------------------------------
------------------------------------------------------------------
------------------------------------------------------------------


                       
----------------bu-----------bu--------
------------22-------22------
------------21-(22)-----21-(22)-/\/\/\/\/\/\/\/\/\/\/\/\
-----------------------------------
----------------------------------
------------------------------------




                                 
----16-16-16-16-16-etc.--------------------------
----------------------------------------------------
----------------------------------------------------
----------------------------------------------------
----------------------------------------------------
----------------------------------------------------



----16-(18)(16)(14)----18(19)--18(19)(18)(16)(14)-------------------------
---------h--po-po----------h--------h-po-po-po--
-------------------------------------
------------------------------------
--------------------------------------
------------------------------------
repeat
N.B. can also be played by tapping 19 with right hand, although it sounds like buckethead is actually using his little finger.




---19---------19---21---19-------------I--------po----19---21---19---------
---------21--------------------21--19---I--21--(19)-------------------21--19
------------------------------------------I--------------------------------------
------------------------------------------I--------------------------------------
------------------------------------------I--------repeat------------------------
------------------------------------------I--------------------------------------



-19--21(22)(21)(19)----------------------
---------bu-bd---po-----21---------------
-------------------------------------------
-------------------------------------------
-------------------------------------------
-------------------------------------------

bolt

  • NewGNR Crew!
  • Bedouin
  • *****
  • Posts: 92
tabs
« Reply #8 on: February 17, 2004, 07:15:17 PM »
Buckethead "Hogbitch stomp" video from newgnr.com
1/2 step down

----------------------------------
--3--3--3-----h---3---3----h---3-
--4--5---7---5(7)---------5(7)---
----------------------------------
----------------------------------
----------------------------------


-----------------------------------
--3---h----3-3-----------3--0------------
-----5(7)---------------3-------0---------
-----------------------5------------
-----------------------rake------------
-----------------------------------


-------3----------3------------------
----------5---------5-3---------------
-------------------------3------sl---7----------0
---sl-----------sl--------------8/9-----9-7-----------
--6/7---------6/7---------------------------7----------7
-----------------------------------


--------------------------------------------------
-----8-5-------8-5-------8-5-----------8-5------
--------------------------------------------------
--------------------------------------------------
--------------------------------------------------
---0-0-0-0--0-0-0-0---0-0-0-0------0-0-0-0---


-----------------------------------
--5--------------8-7-5---------------------
--6---x--4-----------------------------
--7---x--6-------------------------
------x--7----------------------------
-----------------------------------

-----------------------------------
--5--------------8-7-5---------------------
--6-x---4-----------------------------
--7-x---6-------------------------
----x---7----------------------------
-----------------------------------

--------5---3----------------------
---7----5---3-------------------------
---8----6---4-------------------------
---9----7---5-------------------------
-----------------------------------
---------------3(4)--0------------------


---------------------------------------------------0----2-
---------------------------------------------------2------
-------------po--------------------po-------------2-----
----2--2--2-(0)-----------2--2--2-(0)------------0-----
-----------------0----------------------0-2-------2
-----------------------0--------




--4--7--9--9--7------------------4-------
-----------------7--9---5--4-5---5-------
--------6---------------------------
-----------------------------------
--7---------------------------------
-----------------------------------


---4--4-4-4--4-4-4-4-4----->10<--------------
---5----------5-5-5-----------------9----5--7--9
---------1--------------------------
---2---------------4-----------------
-----------------------------------
--------------4---------------------
                       This note (><) sounds (dare I say it...)miss struck - ?9



-------5-5-5------4-4-----2-2-2-4--6--6/7--7
--------------7-7------5--------------
-----------------------------------
------7------4----6----2--4------------
----------------------------------
-----------------------------------


-------4----7----9---7-5--4-4-2------------
-----------------------------------4--5----
---------------------------------------------
-------2---------7---------6---4-----2------
---------------------------------------------
---------------------------------------------
Time = 33s at end of this "bar"



---4--4-4-4--4-4-4-4-4-----8/9\8--------h--------
---5----------5-5-5------------------9--5(7)-9-
---------1--------------------------
---2---------------4-----------------
-----------------------------------
--------------4---------------------



-------5-5-5------4-4-----2-2-2-4--6--7--7
--------------7-7------5--------------
-----------------------------------
-------7-----4----6----2--4----------
-----------------------------------
-----------------------------------

bolt

  • NewGNR Crew!
  • Bedouin
  • *****
  • Posts: 92
tabs
« Reply #9 on: February 17, 2004, 07:20:41 PM »
Madagascar

Intro


--------------------------------------------------------
-----------4-6--6--------------------------4-6---6-9------------
----6-6-6---------3-3---5-6------6-6-6--------------6---8-5--------
-------------------4-4------------------------------------
--------------------------------------------------------
----6---4-------2-----------------6----4---------2------------



--------------------------------------------------------
------------4-6-6-7-7----------------------------------------
----6-6-6----------------5-6--6--5--5---5-3--5-3-3--5-6---
--------------------------------6---------------4-----------
--------------------------------------------------------
----6---4-----2--------------------------------------------

chords
----------------------------------------------------------
-14----13--11--------------------------14----13---13----13-11----12---11--11---
-15----13--11--------------------------13----13---13----13-11----11---11--11---
-15----13--11--------------------------13----13---13----13-11----11---11--11---
-13----11---9------repeat x2 more-----11----11---11----11-9------9----9---9----
-----------------------------------------------------------

vamps with chords; (vamps played every 2nd beat)

--18------------------------------------16--14--
---------------------------------------------
--15---(repeat x12)---------------------13--11--
----------------------------------- last vamps have volume swell
-----------------------------------
-----------------------------------


Bridge
--------------------------------------------------------------------18--------
----13-(14)--13---11---------13-(14)--13---11------16-(18)--
-----------------------------------------------------------------15-----------
--------------------------------------------------------
--------------------------------------------------------these 4 note in later performances
--------------------------------------------------------

------------------------------------------------------------tapped harm
---13-(14)--13------------13-(14)--13---11--------11---(18)
-----------------13-------------------------------------
--------------------------------------------------------
--------------------------------------------------------
--------------------------------------------------------


--------------------------------h-----------------------
----16-(18)(16)--16--------16--18-\-(14)------14----
--------------------------------------------------------
--------------------------------------------------------
--------------------------------------------------------
--------------------------------------------------------


-----h--po-------------------------------------------------
--13-14-13---11-------------------------------------------
--------------------------------------------------------
--------------------------------------------------------
--------------------------------------------------------
--------------------------------------------------------


----------------------11----------------------11------------
----------------------13-(14)-13--11--------13-(14)-13--11---
-------h--po-----------------------------------------------
--8-10-11-10--8-------------------------------------------------
--------------------------------------------------------
--------------------------------------------------------


-----11--------------------11-------------------------
-----13-(14)-(13)---------13-(14)-13--11------------
-------------------13----------------------------------
--------------------------------------------------------
--------------------------------------------------------
--------------------------------------------------------



ive searched and found ......  my own denial is so hard to break
-------------------------4---------------------
-------------------------4---------------------
--6---5---3------5----------5---5-6-5-3----3------------
--8---6---4------6---6--------6---------------------
--8---6---4------6--------------------------------
--6---4---2------4--------------------------------
solo
--------------------------------------------------------
--------------------------------------------------------
--------------------------------------------------------
-----------------------~~~~~~~~~~~~~~~~~-------
--13----------------------------------------------------
---------------------11--11--11-11-11-11-11--13---------6----


--------------------------------------------------------
--------------------------------------------------------
--------------------------------------------------------
-----------------------------------------------------/-15--13-------
-------11---------------------------------------13-------------13--16---------
--11------13-----13-11-13---13-11-13------------------------------------


--------------------------------------------------------
--------------------------------------------------------
--------------------------------------------------------
------h-------------------h-------------------------------
---13-16--16-11------11--13--13------------------------
--------------------13------------------------------------


--------------------------------------------------------
--------------------------------------------------------
--------------------------------------------------------
--------------------------------------------------------
-9-9-9-9-6-6-6-6-9-9-6-6-8-8---------------------------
---------------------------------6--------------------------




--------------------------------------------------------
--------------------------------------------------------
-----13-15--13------------------------------------------------
--15------------15---15-(16)-(15)-15----15--13-13--15-15-------------
----------------------------------------------------------------13
--------------------------------------------------------



-----------------------------------------------------------------
------------------------------------------------------
----------------------13-13-15-15--13-13-15-15-------------------------------------13-13-15-15-----
-15-15-13-13-15-15------------------------------13-13-15-15--------15-15-13-13-
------------------------------------------------------------------13-13-------------
-------------------------------------------------






--------------------------------------------------------
-----13-14--16---16-(17)-16-(17)-16-(17)-16-(17)(16)-16-14-13-
------------------------------------------------------
--------------------------------------------------------
--------------------------------------------------------
--------------------------------------------------------




--------------------------------------------------------
--14---------h---------------------------------------------------------14-16-18--
------13--13-15--13------------------------------------------13-15--
-----------------------15\(13)-11------------11---11-13--/15-----------
------------------------------------13-----------13---------
--------------------------------------------------------




-------------------------------------------------------------------po----------po--------------h----
-----------------16-(18)-16-(18)(16)--16-(18)----16(18)(16)-16-(14)--14-(13)----13(14)------------------
------------------------------------------------------------------------------------------------------13
--------------------------------------------------------
--------------------------------------------------------
--------------------------------------------------------


---------------------h-------h---------h--------h-----------------h-----------------b---------b--sl
-----------------------------------------------------------------------14-16--16-(18)---16-(18)\---
-----13--------13-(15)----------13-(15)----------------13--13-(15)------------
--15---------------------13-(15)-----------13-(15)--15-----------------
-----------------------------------------------------
-----------------------------------------------------



--18-----18-----18----18-----18------18----18-----------------b------
------18-----19----18-----19-----18-----19----18---16----16(18)(16)--11-------------
-------------------------------------------------------
-------------------------------------------------------
-------------------------------------------------------
-------------------------------------------------------





Outro solo w/wah
--------------------------------------------------------
---16-(18)-(16)--14-(16)-(14)--13-(14)-(13)---13-(14)--13--13(14)(13)---11-
--------------------------------------------------------
--------------------------------------------------------
--------------------------------------------------------
--------------------------------------------------------


---------------------------------------------------------
---------------------------------------------------------------------po------
--3--5-6--8-10--10-3--3----5-6----10-10---8-6-5---3-3------3---------3---
----------------------4--4---------------------------------------4--(3)----3-
---------------------------------------------------------
--------------------------------------------------------

gan7676

  • Realtime Visionary
  • ***
  • Posts: 637
    • http://www.fuckslash.com
tabs
« Reply #10 on: February 17, 2004, 11:01:09 PM »
1. is maddie standard or 1/2 step down?

2. does the solo use wah?
Give me some marshmallows!!!

F*ck Fear

  • A Classic Case
  • ****
  • Posts: 4371
  • Gender: Male
  • Berserker
tabs
« Reply #11 on: February 17, 2004, 11:42:21 PM »
Thanks Bolt
Thou shall not spilleth thy beer

bolt

  • NewGNR Crew!
  • Bedouin
  • *****
  • Posts: 92
tabs
« Reply #12 on: February 17, 2004, 11:59:14 PM »
Quote from: "gan7676"
1. is maddie standard or 1/2 step down?

2. does the solo use wah?


1. half step down, or at least that's how it's tabbed here.

2. The solo does use wah. If you look at the RIR III video, you'll see buckethead fucking about with the bridge quite a lot. He actually strikes the strings quite close to the bridge during a lot of the solo, so as to get a tinny sound, which also responds well to the wah. The most pronounced wah part is the pedal tone at the end of the solo and also during the outro.

gan7676

  • Realtime Visionary
  • ***
  • Posts: 637
    • http://www.fuckslash.com
tabs
« Reply #13 on: February 17, 2004, 11:59:54 PM »
Quote from: "bolt"
Quote from: "gan7676"
1. is maddie standard or 1/2 step down?

2. does the solo use wah?


1. half step down, or at least that's how it's tabbed here.

2. The solo does use wah. If you look at the RIR III video, you'll see buckethead fucking about with the bridge quite a lot. He actually strikes the strings quite close to the bridge during a lot of the solo, so as to get a tinny sound, which also responds well to the wah. The most pronounced wah part is the pedal tone at the end of the solo and also during the outro.
Is it the Rio version?

and THANKS! :cheesy:
Give me some marshmallows!!!

bolt

  • NewGNR Crew!
  • Bedouin
  • *****
  • Posts: 92
tabs
« Reply #14 on: February 18, 2004, 08:32:13 PM »
Yeah, the solo and stuff is, but some of the interludes are only audible on the later versions (i.e. the world tour). I can't remember exactly which bits, because it was some time since I tabbed it.