Please login or register. July 29, 2014, 11:42:37 AM

Author Topic: We need "Sorry" Tabs..  (Read 971 times)

0 Members and 1 Guest are viewing this topic.

livinginatinderbox

  • King Dick
  • ***
  • Posts: 316
  • Gender: Male
  • ‎"The Measure of life, is the measure of love."
We need "Sorry" Tabs..
« on: January 01, 2009, 08:27:29 PM »
i tried to get the solo down but i just cant.. anyone got the tabs for it..  :rockon: :rockon:
murph is the man!!!

Coche N Roses

  • A Classic Case
  • ****
  • Posts: 3851
  • Gender: Male
  • Turn around bitch I got a use for you
Re: We need "Sorry" Tabs..
« Reply #1 on: January 02, 2009, 04:53:24 AM »
+1


anyone?  :paranoid:
I might be a little young but honey I ain't naive.

My ass is usually called Myles Kennedy because he can deliver Mr. Brownstone so perfectly and so naturally. My ass is the best singer of modern rock.

bolt

  • NewGNR Crew!
  • Bedouin
  • *****
  • Posts: 91
Re: We need "Sorry" Tabs..
« Reply #2 on: January 03, 2009, 08:59:41 PM »



-----h--po-----------------------------------------------
--11(12)(11)-----------------------h--po-------------------
----------------------11--13----11(13)(11)-------11-----------
-----------------13------------------------13---------13---------
------------------------------------------------------------
--------------------------------------------------------------



--------------------h-----16(14)--16(18)--16--14---14(16)--14--11----
---------sl-----14(16)-------po------bu------------------------------
-----11/(15)------------------------------------------------------
--13---------------------------------------------------------
------------------------------------------------------------
--------------------------------------------------------------


----h-----------------------------------------------------
-14(16)-14------------sl---------h---po--po---------------------------------
-----------14)\(13)-/(13)----13(14)(13)(11)------11---------------------------------
---------------------------------------------13-----------------
-------------------------------------------------------------
--------------------------------------------------------------


-----14-----------13-----------9(11)---9----------------------------------
-11-------11\(9)------9\(7)------h--------11-----------------------------
-----------sl------------sl-----------------------------------
-----------------------------------------------------------
------------------------------------------------------------
--------------------------------------------------------------



-----14-----------13-----------9---9-----9(11)--9-------------
-11-------11\(9)------9\(7)----------------h--------14\(9)--7--9(7)--
-----------sl------------sl-------------------------------------po
-----------------------------------------------------------
------------------------------------------------------------
--------------------------------------------------------------



------------------------------------------------18-----------
--9/(11)---------------14-----18(19)---18(19)-------(19)----
----sl------h-----11-------------bu------bu----------pb--------
---------11(13)----------------------------------------------
------------------------------------------------------------
--------------------------------------------------------------


-------bd--------bu-bd---po-----------------
--(19)(18)-----18(19)(18)(16)----------------16-18-19--21-19-18-19-----------
---pb-------------------------\15---15-16-18------------------------------
-----------------------------------------------------------
------------------------------------------------------------
--------------------------------------------------------------


--21-19-18-19-21---------------------------------------------------
------------------19-18-19-21(bu)------------------------------------
-----------------------------------------------------------
-----------------------------------------------------------
------------------------------------------------------------
--------------------------------------------------------------
« Last Edit: January 03, 2009, 09:06:58 PM by bolt »