Please login or register. March 28, 2017, 09:15:11 AM

Author Topic: Previous tabs  (Read 11151 times)

0 Members and 1 Guest are viewing this topic.

bolt

  • NewGNR Crew!
  • Bedouin
  • *****
  • Posts: 92
Previous tabs
« on: December 01, 2003, 08:14:03 PM »
Some of my previous tab posts got deleted and I've been asked to re-post them. Most people will have seen these posts before, to them my apologies for posting the same old stuff.  Anyone who hasn't, please post any ammendments/comments, etc.

-----------------------------------------------------------------------------



Patience solo, as downloadable clip from newgnr.com
This includes the outro that I previously didn't post.



------8----8--/-10-\-8----7--5--3---------
--/8-------8--/-10-\-8----8--7--5---------
--------------------------------------------
--------------------------------------------
--------------------------------------------
--------------------------------------------


------8-------7--5---5---3---0------------------------
---/8-(ring)---8--7---7---5---0------------------------
--------------------------------------------
--------------------------------------------
--------------------------------------------
--------------------------------------------



--8---------8----8--/-10-\--8------7--5--3--3--2-----------
-----8----8------8--/-10-\--8------8--7--5-----3--------
--------------------------------------------
--------------------------------------------
--------------------------------------------
--------------------------------------------



---2-----------------------------------------
------3----sl---7-----------7------3-----------------
---------2/(4)---------h--------------------------
---------------------7(9)-----------------------
--------------------------------------------
--------------------------------------------



-----bu-bd---------------bu-----------bu----------------
--8(10)(8)--8~~~----10(12)(10)---10(12)~~--------------------------------
--------------------------------------------
--------------------------------------------
--------------------------------------------
--------------------------------------------



---------bu-bd--------------------------------------
----------8(10)(8)--8-8(10)---------------------------------
--------x---------------mute--------7(8)~~-------------
------x--------------------------------------
----x----------------------------------------
--------------------------------------------



------------7---10-------10-(8)-(7)---------------sl-----h--------bu-bd--po-sl
----h---8---------------------po-po------8-10-10/12-(13)---12(13)(12)(10)-\(8)-------
--7(9)---------------------------------7---------
--------------------------------------------
--------------------------------------------
--------------------------------------------



------------------sl---------bu--bd-------------------
-------------10/(12)-12(13)(12)-10------------
-------------------------------------------
--------------------------------------------
--------------------------------------------
--------------------------------------------


--------------------------------------------
----------10-----------------------------------------------------------------
--------------11(then mute)---------7-(9)(7)---7~~--7\4-------2------h---2--
----------------------------------PH-bu-bd------------------------3(4)------0
--------------------------------------------------------------------PH-
----------------------------------------------




------h---------------------------------------
---7-(8)-7----------------------------------------------------------h--po--h---po-
---7--------------------4-----------5-------7--------9---------11(12)(11)(12)(11)~~
---7-------------5--7------5--7-------7--9----9-10---10-12---
----------------------------------------------
----------------------------------------------


--------------5---------h-------------
----8----7---5----5--5(7)------------------
----7----7---7-------------7------------
----5----5---5-------------0------------
----0----0---0--------------------------
----------------------------------



----------------------2-----2---------3---3-------3--3
-----7----7----------3-----3---------3---3-------3--3-
-----7----7----------2-----2---------0---0--x-x--0--0---
-----7----7---------------(mute)-------------x-x--------
-----5----5-----------------------------------x-x
----------------2-----------------3-------------




------------2-------2-------2--2--2---0-------------
----------------5-----------3--3--3---3-----------7------7
-----2----------------------2--2--2---0-----------7--x---7
----------------------------------------------------7---x--7-
----------------------------------------------------5---x--5
------------------------2------------------3-2-0--




------sl---sl-----
-----8/(10)/-----
-----------------
-----------------
-----------------
-----------------


------14\(12)--------12--------------
----------------------------
--14-----(12)---12------------------
----------------------------
-----------------------------
-----------------------------


------10\(8)-----8-7~~----------------
----------------------------
--/11--------9------------------
----------------------------
-----------------------------
-----------------------------

-----7\(5)------5--3-------3--------
----------------------------
--7---------5-----------5------
-------------------------(sweep)---
-----------------------------
-----------------------------

----------2--3(2)-------------------
--------------------3--------------
------7----------------2------------
-/7-----------------------0-------
-----------------------------
-------------------------------2

semi harm for 3(2) above


------------------------------------------------------------------------------------


KOHD solo by buckethead, again, from newgnr.com video clip


----------bu--------bd--------------------------------
------15(17)-(17)-(15) 15-13-12-13---------------h------------
---12------------------------------------12---h----12-14-14(16)--
---------------------------------------------12-14-
----------------------------------------------
-------------------------------------------------


------------------------------------------------
---15-----bu--------------bu-bd--po----------h-------------
-------14(16)--14---14(16)(14)--12------(12)14------h-----------------------
-------------------------------------------14---------(12)14-
------------------------------------------------
-------------------------------------------------


---------------------12--14--15--15--------------
----------12-13-15------------------------------------
---12-14---------------------------------------------
------------------------------------------------
------------------------------------------------
-------------------------------------------------

--14-15-14------bu-----------------bd-----------------------
-------------15-(17)----(17)---(17)(15)---15\13---13\12-----------------------
--------------------------------------------------
---------------------------------------------------
---------------------------------------------------
--------------------------------------------------


------------------------------------------------------
----12-13-15----------------------bu--15------bu---------
---------------12-----12-14--14-(15)-----14-(15)---14~~~
-------------------14-----------------------------------
------------------------------------------------------
------------------------------------------------------




-15--14--15--12--15-----15----------------------------------------
------------------------15----13-15--12---------------------------po---
--------------------------------------------14-(15)---14-(15)(14)-12----
------------------------------------------------------
------------------------------------------------------
------------------------------------------------------

------------------------------------------------------
----------h--------------------------------------------
------12-14--12---------------------------------------------
--14----------------------------------------------------
------------------------------------------------------
------------------------------------------------------






--------------------------------------------------------------------------------

RIR III SCOM solo




---------12-----12------12------------------------
---------15(17)-15(17)--15(17)-------------------
----------------------------------------------------
----------------------------------------------------
----------------------------------------------------
----------------------------------------------------


----------------------------------------------------
--12(15)(12)------12-15(17)---15(17)-15(17)----
---------------14-----------------------------------
-----------------------------------------------------
----------------------------------------------------
---------------------------------------------------


----------------------------------------------19----------18---------------17----15---17~~-
--12(15)(12)------12-15(17)---------17(19)-----19(20)-----19(20)----x-------x----x-----
---------------14-----------------------------------------------------------------------------
--------------------------------------------------------------------------------------------
--------------------------------------------------------------------------------------------
--------------------------------------------------------------------------------------------




-----pb--bd--po--po----------------h-------------------------------
----(21)-19-(17)-(15)---17------15(17)~~------12(15)(12)--------
---------------------------------16------------------------------14-----
----------------------------------------------------------------------
----------------------------------------------------------------------
----------------------------------------------------------------------




-------------------------------------------------------
---------h--po--po-----------------------------------
-----14(16)(14)(12)--14-------14(16)~~------------
---------------------------14-------------------------
-------------------------------------------------------
-------------------------------------------------------




--------------------------------------------------------------
-----------------12(15)(12)----------------bu-bd-po--------
-----14(16)~~--------------14(12)---14-(16)(14)(12)------
--------------------------------------------------------------
--------------------------------------------------------------
--------------------------------------------------------------




--------------------------------------------------
------------bu-bd-po--------po--------po------
------14-(16)(14)(12)---14(12)----14(12)------
------PH----------------------------------------
-------------------------------------------------
-------------------------------------------------




------15(17)-----15(12)--15(12)-------h---po------------------------------------
---------bu----------po------po----12(15)(12)-----h---12--------bu-bu--po-----
-------------------------------------------------14(15)------(14)(16)(14)(12)----
-----------------------------------------------------------------------------------
-----------------------------------------------------------------------------------
-----------------------------------------------------------------------------------


----------------------------------------------------
---------po-----------------------------------------
-----14(12)--------po------------------------------
----------------14(12)-14--------------------------
----------------------------------------------------
----------------------------------------------------



----------------------------------------------------
----------------------------------------------------
-----12(14)(12)----12-----------------------------
-----------------14------14(12)--14---------------
----------------------------------------------------
----------------------------------------------------



--------------------------------------------------------------------------h---po----
--------bu--bd-------------bu-----12--12---------------------------17(20)(17)----
-----12(14)(12)--------14(16)-------------------bu---16--19--21-----------------
-------------------14-------------------------19(21)-------------------------------
-------------------------------------------------------------------------------------
-------------------------------------------------------------------------------------





---------bu---19-19----bu----19-19-------17(19)(17)(15)------bu----------
-----22(24)----------22(24)-------------------bu---bd-po---17(19)---------
-------------------------------------------------------------------------------
-------------------------------------------------------------------------------
-------------------------------------------------------------------------------
-------------------------------------------------------------------------------








------------------------------------------------------------------------------------





Madagascar - ?Pittsburg solo



----------------------------------------------------------
----------------------------------------------------------
----------------------------------------------------------
----------------------------------------------------------
--------------bu----------------------------th------th-----
-11~~~---13(14)(13)~~~--13--11\6~~-(13)(6)(13)(6)--


-----------------------------------------------
-----------------------------------------------
-----------------------------------------------
-----------------------------------------------
-6---6/(11)--8(9)(8)(9)(8)-8\(1)--------------
-----------------------------------------------



----------------h--po------------------------------------------
----------/9--7(9)(7)\(6)---6-7--------bu---------------------
-----10---------------------------6--5(6)--5-3-3-------------
---8-----------------------------------------------------------
---------------------------------------------------------------
---------------------------------------------------------------



---------------------h-------------13--(14)(13)-------------
-----11--13-14-13(14)--13--11-------quick bu and bd-----
-----------------------------------------?w/ whammy--------
--------------------------------------------------------------
--------------------------------------------------------------
--------------------------------------------------------------



--13-----po--------------------------------h---------------
------16(14)--14---14/(16)--14--13---13(14)----h--------
------------------------------------------------13(15)------
-------------------------------------------------------------
-------------------------------------------------------------
-------------------------------------------------------------



------------------------------------------------------
------------------------------------------------------
------h-----------------------------------------------
--13(15)----------------------po---po---------------
------------15(16)-16-15--16(15)(13)--------------
------------------------------------------------------



-----------------------------------------------------
----------------------------------------------18----
-------------15---15--17--17/(18)-17--15---------
----------15----------------------------------------
---13-----------------------------------------------
----------------------------------------------------



------------------------PH-----------------------------------------
---21---19--18--19-----------------------h--po--po--------------
------------------------18----17-18--17(18)(17)(15)-15----------
--------------------------------------------------------------------
--------------------------------------------------------------------
--------------------------------------------------------------------



--19-18--16--18-------------------bu--------bu--bd------------bu--
------------------------14--16--16(18)---16(18)(16)-16-14-16(18)-
--16-15--13--15-----------------------------------------------------
-(string synth)---------------------------------------------------------
-----------------------------------------------------------------------
-----------------------------------------------------------------------



--------------h---------------------------------------------------------
--14-13--13(14)-----------------h-------------------------------------
------------------13-----h----13(15)----(string synth diads as before)--
----------------------13(15)-------------------------------------------
------------------------------------------------------------------------
------------------------------------------------------------------------



-----bu--------------------bu-------------------------------
-16(18)--16--16--16-16(18)--16--13(14)--13--11--------
-------------------------------------------------------------
-------------------------------------------------------------
-------------------------------------------------------------
-------------------------------------------------------------






------------------------------------------------------------------------------

Nampa SCOM solo


       bu        bu bd                    po
-17(19)17(19)(17)--15--14-15-14------------
-----------------------------------------17---------
---------------------------------------
---------------------------------------
---------------------------------------
---------------------------------------


                     po  
-15---14-15-14-------------14------pb--bd--------
--------------------16--/17----------(16)(15)---
---------------------------------------
---------------------------------------
---------------------------------------
---------------------------------------
pb=prebend


---------------------------------------
---12--------bu-bd--------------------
---------14(15)(14)--12---11-12----------
------------------------------------------14--
---------------------------------------
---------------------------------------



-------------------------bu--bd------po-------------
---------------/13--12(12.5)(12)-13-12--10--------------------
-------11-12-------------------------------
--/14------------------------------------
---------------------------------------
---------------------------------------



-------bu--bd--bu---pb-bd-------------------bu--bd----------15(17)--15
---13(15)-(13)(15)-(15)13--12-12~~~---12(14)(12)---------
-------------------------------------------------------14
---------------------------------------
---------------------------------------
---------------------------------------



---bu-bd-------------bu-bd---------------------
-7(8)(7)------------7(8)(7)-------------------
----------9--/9~~--------------9-11---9--8---8/(11)---
---------------------------------------
---------------------------------------
---------------------------------------



-----------------------------------
------bu-bd-----------------------------
--11(12)(11)-9----bu-------h---9~~-----
-----------------9(10)--9-(10)-------
---------------------------------------
---------------------------------------



-------h-po-------------------------------
-----7(8)(7)-----sl------sl-----sl-----------------
---------------8/(9)--8/(9)--9\(8)---11-----------------
---------------------------------------
---------------------------------------
---------------------------------------



---------h---------------h-------------------------------------------
-------7(8)-------7--8-10------7-8-10--12-----8-10-12-13-----------
--7-9----------9-----------------------
---------------------------------------
---------------------------------------
---------------------------------------



-------------12------------12-14-----12-------------12--------12-------12--
--12-13-15--------13-15---------15----------------15(17)----15(17)--15(17)--
---------------------------------------
--------------------------------------
---------------------------------------
---------------------------------------



---------------------12-----12------12------
--12(15)(12)-------15(17)-15(17)--15(17)-------------------
---------------14------------------------
---------------------------------------
---------------------------------------
---------------------------------------


------------------------bu &mute------bu--20---------19---------19--bu--bd--sl---bu--bd---po
--12(15)(12)-------15(17)---------17(19)-----17(19)-----17(19)--17(19)(17)/(19)(21)(19)(17)
---------------14--------------------------------------------------------------------------------------16
---------------------------------------
---------------------------------------
---------------------------------------



------------------------------------
----18(21)--17--
----19(21)------------------------------
---------------------------------------
---------------------------------------
---------------------------------------



---------------------------------------
------15--17---15-----------------------bu-bd---po----
--16----------------14--14-15-16---14(15)(14)-(12)-14~~~-----------
---------------------------------------
---------------------------------------
---------------------------------------


                    h    po                         pb                                       po   po    po
---------12(15)(12)--------bu-----(18)17----15-14-15---14-(15)-(14)-(12)----------
-----bu-----------------15(17)--
-14(15)----------------------------
---------------------------------------
---------------------------------------
---------------------------------------


--------12---14(12)-------------------------------
----15---------------15-(14)-(12)--------------------
-----------------------------------------16-14-12(13)-
-----------------------------------------
-----------------------------------------
-----------------------------------------



------------------------------------------
-----------------------------------------
-------------------12-14-12-----12----------------------
-14-12-14--------------------14------14-12-14-----------------
---------------------------------------
-----------------------------------------


-------------------------12-----------------12--------12-(15)-(12)
-------------------------12--12---15(17)-------12-----------------12
-12-14-12------14(15)---------------------------------
-------------14----------------------------
-----------------------------------------
-----------------------------------------


       bu
--18(20)--pb---pb--pb--bd--bu-bd--po-----bu-----------------------
----------(19)-(19)-(19)(17)(19)(17)(15)--17(19)---------------------------
------------------------------------------
-----------------------------------------
-----------------------------------------
-----------------------------------------



------------------------------------------
---12(15)(12)--15(17)---12(15)(12)--------
----------------------------------------14(15)--
-----------------------------------------
-----------------------------------------
-----------------------------------------



------------------------------------------
---12(15)(12)--15(17)---12(15)(12)-------
----------------------------------------14(15)--
-----------------------------------------
-----------------------------------------
-----------------------------------------


------------------------------------------
---12(15)(12)--15(17)---12(15)(12)----------
----------------------------------------14(15)--
-----------------------------------------
-----------------------------------------
-----------------------------------------



----------------15(17)---17(20)---17-15-17-------15------------
---12(15)(12)---------------------------------17-------15-17-----
-----------------------------------------
-----------------------------------------
-----------------------------------------
-----------------------------------------


----------------------------------------------
-----15--17-15--------------------------------------
-16----------------16-14---14-(16)(14)-(12)--------------------------
----------------------------------------------14~~-\-----
---------------------------------------------
---------------------------------------------
some notes missing from this last line

Skully

  • Rubbermade Baby
  • *
  • Posts: 13
Previous tabs
« Reply #1 on: December 15, 2003, 06:21:16 AM »
hey man, I can't find that buckethead nightrain outro you tabbed a while back ???
^That's amazing^

gan7676

  • Realtime Visionary
  • ***
  • Posts: 637
    • http://www.fuckslash.com
Previous tabs
« Reply #2 on: December 15, 2003, 06:17:49 PM »
A comprehensive approach!  Thanks bolt!
Give me some marshmallows!!!

thomasmeadow

  • Failure To Communicate
  • *
  • Posts: 3
Previous tabs
« Reply #3 on: January 29, 2004, 09:52:15 PM »
tabs are for fags  :lol:

nemo

  • It Was A Long Time With Me
  • ****
  • Posts: 3356
  • ..floog...?
Previous tabs
« Reply #4 on: January 29, 2004, 09:53:52 PM »
Quote from: "thomasmeadow"
tabs are for fags  :lol:


no, they're for guitar players

thomasmeadow

  • Failure To Communicate
  • *
  • Posts: 3
Previous tabs
« Reply #5 on: January 29, 2004, 09:58:32 PM »
Quote from: "nemo"
Quote from: "thomasmeadow"
tabs are for fags  :lol:


no, they're for guitar players


I have to go to school in a little bit, But I'll post a thing THat I use that slows the song down but keeps the same pitch.

BA Baracus

  • Guest
Previous tabs
« Reply #6 on: January 30, 2004, 09:15:12 AM »
i ain't no guitar player, i'm a damn fighter fool, i'll smack your face nemo if you got anything to say sucka

Abitestranged

  • Lost In The Shadows
  • *
  • Posts: 20
Previous tabs
« Reply #7 on: April 12, 2005, 04:13:28 AM »
which part of scom solo is that?

wyldechild

  • Old At Heart
  • ******
  • Posts: 12271
  • Gender: Male
  • Overlord
    • My Youtube Account
Previous tabs
« Reply #8 on: January 28, 2006, 07:31:57 PM »
Quote from: "thomasmeadow"
tabs are for fags  :lol:


well you're wrong...yeah I think it would be best to learn song by ear but it's not that easy to everybody...yes and practice makes perfect but tabs are great for beginners
YOU CAN HAVE BOOZE WITHOUT FUN

trojan

  • Realtime Visionary
  • ***
  • Posts: 641
Previous tabs
« Reply #9 on: March 13, 2006, 08:45:19 PM »
yeah, those sweet child o' mine solos suck (their transcribed great, its just that finck ruins it)

goliathPL

  • Rubbermade Baby
  • *
  • Posts: 14
Previous tabs
« Reply #10 on: June 16, 2006, 08:32:00 AM »
Wrong man. Finck's SCOM solos are way much better and powerful. The drums during the solo rock.

axls_sweetchild

  • It Was A Long Time With Me
  • ****
  • Posts: 2967
  • Gender: Female
  • Got a one way ticket and there's no way out alive
Re: Previous tabs
« Reply #11 on: November 13, 2009, 03:20:59 AM »
Wrong man. Finck's SCOM solos are way much better and powerful. The drums during the solo rock.


Finck is great....And his SCOM was one of the best I have heard ...nope...was the best.
If I could go back in time...To a place in my soul, there all alone.....

Axl_Duff_87

  • A Classic Case
  • ****
  • Posts: 4735
  • Gender: Male
  • "Ladies & Gentlemen...Tommy Fuckin' Stinson!"
Re: Previous tabs
« Reply #12 on: November 21, 2009, 10:19:14 PM »

Finck is great....And his SCOM was one of the best I have heard ...nope...was the best.

 :nod: fuckin' hell yeah!  :bow:  :rockon:
╔═╦╦╦═╦═╗ ╔═╗ ╔═╦═╦═╦═╦═╗
║║║║║║║╚╣ ║║║ ║═║║║╚╣═╣╚╣
╠╗║║║║╠╗║ ║║║ ║╚╣║╠╗║═╬╗║
╚═╩═╩╩╩═╝ ╚╩╝ ╚╩╩═╩═╩═╩═╝
it don't really matter.

Nirvana

  • Bad Obsession
  • ***
  • Posts: 874
  • Gender: Male
Re: Previous tabs
« Reply #13 on: April 05, 2010, 10:28:24 AM »
can someone give me Welcome To The Jungle Tabs ?

W.Axl-Rose

  • Banned
  • Used To Do A Little
  • ****
  • Posts: 1057
  • Gender: Male
  • Agent Frank Lundy
    • http://www.youtube.com/DexterMorganHD
Re: Previous tabs
« Reply #14 on: April 05, 2010, 11:43:59 AM »
Do you know something called the internet? google?
DEXTER Season Five Prediction > Dexter WILL get caught.

My 2010 Concert Tour:

June 2. SLASH + RAMMSTEIN
June 3. RAMMSTEIN
June 11. Megadeth
June 16. KISS
September. LIMP BIZKIT

Nirvana

  • Bad Obsession
  • ***
  • Posts: 874
  • Gender: Male
Re: Previous tabs
« Reply #15 on: April 05, 2010, 10:01:44 PM »
yeas, but if someone have them it will be easier